ISO-10303-21;
HEADER;
FILE_DESCRIPTION (( 'STEP AP203' ),
    '1' );
FILE_NAME ('Web Model 68394.STEP',
    '2017-01-31T19:55:22',
    ( '' ),
    ( '' ),
    'SwSTEP 2.0',
    'SolidWorks 2016',
    '' );
FILE_SCHEMA (( 'CONFIG_CONTROL_DESIGN' ));
ENDSEC;

DATA;
#1 = CC_DESIGN_PERSON_AND_ORGANIZATION_ASSIGNMENT ( #89, #165, ( #32 ) ) ;
#2 = ADVANCED_BREP_SHAPE_REPRESENTATION ( 'Web Model 68394', ( #167, #92 ), #170 ) ;
#3 = VERTEX_POINT ( 'NONE', #49 ) ;
#4 = APPROVAL_PERSON_ORGANIZATION ( #53, #207, #46 ) ;
#5 = VECTOR ( 'NONE', #108, 1000.000000000000000 ) ;
#6 = DIRECTION ( 'NONE',  ( -0.0000000000000000000, -0.0000000000000000000, -1.000000000000000000 ) ) ;
#7 = EDGE_CURVE ( 'NONE', #105, #64, #17, .T. ) ;
#8 = DIRECTION ( 'NONE',  ( 1.000000000000000000, 1.387778780781445400E-016, -0.0000000000000000000 ) ) ;
#9 = FACE_OUTER_BOUND ( 'NONE', #233, .T. ) ;
#10 = CC_DESIGN_PERSON_AND_ORGANIZATION_ASSIGNMENT ( #141, #178, ( #32 ) ) ;
#11 = CARTESIAN_POINT ( 'NONE',  ( 25.00000000000000700, -24.99999999999999300, 3.000000000000000000 ) ) ;
#12 = COORDINATED_UNIVERSAL_TIME_OFFSET ( 5, 0, .BEHIND. ) ;
#13 = ORIENTED_EDGE ( 'NONE', *, *, #215, .T. ) ;
#14 = CC_DESIGN_DATE_AND_TIME_ASSIGNMENT ( #189, #62, ( #149 ) ) ;
#15 = APPROVAL_PERSON_ORGANIZATION ( #231, #188, #76 ) ;
#16 = PLANE ( 'NONE',  #73 ) ;
#17 = LINE ( 'NONE', #50, #5 ) ;
#18 = LINE ( 'NONE', #52, #34 ) ;
#19 = EDGE_LOOP ( 'NONE', ( #172, #226, #194, #223 ) ) ;
#20 = APPROVAL_DATE_TIME ( #126, #70 ) ;
#21 = ORIENTED_EDGE ( 'NONE', *, *, #186, .T. ) ;
#22 = CARTESIAN_POINT ( 'NONE',  ( 24.99999999999999600, 25.00000000000001100, 0.0000000000000000000 ) ) ;
#23 = CC_DESIGN_DATE_AND_TIME_ASSIGNMENT ( #155, #179, ( #176 ) ) ;
#24 = CARTESIAN_POINT ( 'NONE',  ( -25.00000000000000000, 25.00000000000000400, 3.000000000000000000 ) ) ;
#25 = LOCAL_TIME ( 14, 55, 22.00000000000000000, #69 ) ;
#26 = ORIENTED_EDGE ( 'NONE', *, *, #186, .F. ) ;
#27 = DIRECTION ( 'NONE',  ( -1.000000000000000000, 0.0000000000000000000, -0.0000000000000000000 ) ) ;
#28 = EDGE_CURVE ( 'NONE', #61, #105, #115, .T. ) ;
#29 = APPLICATION_PROTOCOL_DEFINITION ( 'international standard', 'config_control_design', 1994, #43 ) ;
#30 = APPROVAL_ROLE ( '' ) ;
#31 = DESIGN_CONTEXT ( 'detailed design', #57, 'design' ) ;
#32 = PRODUCT_DEFINITION_FORMATION_WITH_SPECIFIED_SOURCE ( 'ANY', '', #119, .NOT_KNOWN. ) ;
#33 = SECURITY_CLASSIFICATION_LEVEL ( 'unclassified' ) ;
#34 = VECTOR ( 'NONE', #124, 1000.000000000000000 ) ;
#35 = ORIENTED_EDGE ( 'NONE', *, *, #190, .F. ) ;
#36 = CARTESIAN_POINT ( 'NONE',  ( 25.00000000000000700, -24.99999999999999300, 0.0000000000000000000 ) ) ;
#37 = CC_DESIGN_PERSON_AND_ORGANIZATION_ASSIGNMENT ( #44, #173, ( #119 ) ) ;
#38 = DIRECTION ( 'NONE',  ( -0.0000000000000000000, -0.0000000000000000000, -1.000000000000000000 ) ) ;
#39 = ADVANCED_FACE ( 'NONE', ( #59 ), #184, .F. ) ;
#40 = EDGE_LOOP ( 'NONE', ( #21, #221, #35, #13 ) ) ;
#41 = LINE ( 'NONE', #159, #136 ) ;
#42 = VERTEX_POINT ( 'NONE', #133 ) ;
#43 = APPLICATION_CONTEXT ( 'configuration controlled 3d designs of mechanical parts and assemblies' ) ;
#44 = PERSON_AND_ORGANIZATION ( #72, #82 ) ;
#45 = EDGE_CURVE ( 'NONE', #42, #158, #91, .T. ) ;
#46 = APPROVAL_ROLE ( '' ) ;
#47 = DATE_AND_TIME ( #113, #94 ) ;
#48 = CC_DESIGN_APPROVAL ( #70, ( #176 ) ) ;
#49 = CARTESIAN_POINT ( 'NONE',  ( -25.00000000000000000, 25.00000000000000400, 3.000000000000000000 ) ) ;
#50 = CARTESIAN_POINT ( 'NONE',  ( 25.00000000000000700, -24.99999999999999300, 0.0000000000000000000 ) ) ;
#51 = CARTESIAN_POINT ( 'NONE',  ( -24.99999999999999300, -25.00000000000000000, 0.0000000000000000000 ) ) ;
#52 = CARTESIAN_POINT ( 'NONE',  ( -25.00000000000000000, 25.00000000000000400, 3.000000000000000000 ) ) ;
#53 = PERSON_AND_ORGANIZATION ( #72, #82 ) ;
#54 = AXIS2_PLACEMENT_3D ( 'NONE', #160, #97, #227 ) ;
#55 = CC_DESIGN_APPROVAL ( #207, ( #32 ) ) ;
#56 = PERSON_AND_ORGANIZATION ( #72, #82 ) ;
#57 = APPLICATION_CONTEXT ( 'configuration controlled 3d designs of mechanical parts and assemblies' ) ;
#58 = FACE_OUTER_BOUND ( 'NONE', #40, .T. ) ;
#59 = FACE_OUTER_BOUND ( 'NONE', #71, .T. ) ;
#60 = CARTESIAN_POINT ( 'NONE',  ( 0.0000000000000000000, 0.0000000000000000000, 0.0000000000000000000 ) ) ;
#61 = VERTEX_POINT ( 'NONE', #182 ) ;
#62 = DATE_TIME_ROLE ( 'creation_date' ) ;
#63 = LINE ( 'NONE', #116, #208 ) ;
#64 = VERTEX_POINT ( 'NONE', #36 ) ;
#65 = VECTOR ( 'NONE', #201, 1000.000000000000000 ) ;
#66 = PLANE ( 'NONE',  #54 ) ;
#67 = DIRECTION ( 'NONE',  ( 1.000000000000000000, 1.387778780781445700E-016, -0.0000000000000000000 ) ) ;
#68 = UNCERTAINTY_MEASURE_WITH_UNIT (LENGTH_MEASURE( 1.000000000000000100E-005 ), #80, 'distance_accuracy_value', 'NONE');
#69 = COORDINATED_UNIVERSAL_TIME_OFFSET ( 5, 0, .BEHIND. ) ;
#70 = APPROVAL ( #198, 'UNSPECIFIED' ) ;
#71 = EDGE_LOOP ( 'NONE', ( #212, #78, #219, #148 ) ) ;
#72 = PERSON ( 'UNSPECIFIED', 'UNSPECIFIED', 'UNSPECIFIED', ('UNSPECIFIED'), ('UNSPECIFIED'), ('UNSPECIFIED') ) ;
#73 = AXIS2_PLACEMENT_3D ( 'NONE', #151, #195, #218 ) ;
#74 = LINE ( 'NONE', #106, #65 ) ;
#75 = PERSON_AND_ORGANIZATION_ROLE ( 'creator' ) ;
#76 = APPROVAL_ROLE ( '' ) ;
#77 = PERSON_AND_ORGANIZATION ( #72, #82 ) ;
#78 = ORIENTED_EDGE ( 'NONE', *, *, #215, .F. ) ;
#79 =( NAMED_UNIT ( * ) SI_UNIT ( $, .STERADIAN. ) SOLID_ANGLE_UNIT ( ) );
#80 =( LENGTH_UNIT ( ) NAMED_UNIT ( * ) SI_UNIT ( .MILLI., .METRE. ) );
#81 = PRODUCT_DEFINITION_SHAPE ( 'NONE', 'NONE',  #149 ) ;
#82 = ORGANIZATION ( 'UNSPECIFIED', 'UNSPECIFIED', '' ) ;
#83 = VERTEX_POINT ( 'NONE', #169 ) ;
#84 = DIRECTION ( 'NONE',  ( -0.0000000000000000000, -0.0000000000000000000, -1.000000000000000000 ) ) ;
#85 = DIRECTION ( 'NONE',  ( 1.000000000000000000, 1.387778780781445400E-016, 0.0000000000000000000 ) ) ;
#86 = CARTESIAN_POINT ( 'NONE',  ( 24.99999999999999600, 25.00000000000001100, 0.0000000000000000000 ) ) ;
#87 = CC_DESIGN_PERSON_AND_ORGANIZATION_ASSIGNMENT ( #204, #140, ( #176 ) ) ;
#88 = DIRECTION ( 'NONE',  ( -1.000000000000000000, -1.387778780781445400E-016, 0.0000000000000000000 ) ) ;
#89 = PERSON_AND_ORGANIZATION ( #72, #82 ) ;
#90 = LINE ( 'NONE', #11, #139 ) ;
#91 = LINE ( 'NONE', #86, #142 ) ;
#92 = AXIS2_PLACEMENT_3D ( 'NONE', #60, #99, #217 ) ;
#93 = CARTESIAN_POINT ( 'NONE',  ( -25.00000000000000000, 25.00000000000000400, 0.0000000000000000000 ) ) ;
#94 = LOCAL_TIME ( 14, 55, 22.00000000000000000, #200 ) ;
#95 = SHAPE_DEFINITION_REPRESENTATION ( #81, #2 ) ;
#96 = PLANE ( 'NONE',  #143 ) ;
#97 = DIRECTION ( 'NONE',  ( 0.0000000000000000000, 0.0000000000000000000, -1.000000000000000000 ) ) ;
#98 = CARTESIAN_POINT ( 'NONE',  ( 24.99999999999999600, 25.00000000000001100, 3.000000000000000000 ) ) ;
#99 = DIRECTION ( 'NONE',  ( 0.0000000000000000000, 0.0000000000000000000, 1.000000000000000000 ) ) ;
#100 = ORIENTED_EDGE ( 'NONE', *, *, #230, .F. ) ;
#101 = CALENDAR_DATE ( 2017, 31, 1 ) ;
#102 = VECTOR ( 'NONE', #122, 1000.000000000000000 ) ;
#103 = ORIENTED_EDGE ( 'NONE', *, *, #107, .T. ) ;
#104 = LOCAL_TIME ( 14, 55, 22.00000000000000000, #156 ) ;
#105 = VERTEX_POINT ( 'NONE', #51 ) ;
#106 = CARTESIAN_POINT ( 'NONE',  ( 24.99999999999999600, 25.00000000000001100, 3.000000000000000000 ) ) ;
#107 = EDGE_CURVE ( 'NONE', #83, #3, #74, .T. ) ;
#108 = DIRECTION ( 'NONE',  ( 1.000000000000000000, 1.387778780781445700E-016, -0.0000000000000000000 ) ) ;
#109 = AXIS2_PLACEMENT_3D ( 'NONE', #234, #206, #85 ) ;
#110 = DATE_AND_TIME ( #152, #213 ) ;
#111 = VECTOR ( 'NONE', #216, 1000.000000000000000 ) ;
#112 = VERTEX_POINT ( 'NONE', #181 ) ;
#113 = CALENDAR_DATE ( 2017, 31, 1 ) ;
#114 = ORIENTED_EDGE ( 'NONE', *, *, #190, .T. ) ;
#115 = LINE ( 'NONE', #146, #166 ) ;
#116 = CARTESIAN_POINT ( 'NONE',  ( -25.00000000000000000, 25.00000000000000400, 3.000000000000000000 ) ) ;
#117 = AXIS2_PLACEMENT_3D ( 'NONE', #24, #8, #161 ) ;
#118 =( NAMED_UNIT ( * ) PLANE_ANGLE_UNIT ( ) SI_UNIT ( $, .RADIAN. ) );
#119 = PRODUCT ( 'Web Model 68394', 'Web Model 68394', '', ( #164 ) ) ;
#120 = LINE ( 'NONE', #22, #102 ) ;
#121 = EDGE_LOOP ( 'NONE', ( #26, #144, #205, #130 ) ) ;
#122 = DIRECTION ( 'NONE',  ( -2.081668171172168500E-016, 1.000000000000000000, -0.0000000000000000000 ) ) ;
#123 = EDGE_CURVE ( 'NONE', #112, #64, #90, .T. ) ;
#124 = DIRECTION ( 'NONE',  ( 1.387778780781445700E-016, -1.000000000000000000, 0.0000000000000000000 ) ) ;
#125 = EDGE_CURVE ( 'NONE', #61, #112, #171, .T. ) ;
#126 = DATE_AND_TIME ( #222, #25 ) ;
#127 = ADVANCED_FACE ( 'NONE', ( #229 ), #134, .F. ) ;
#128 = VECTOR ( 'NONE', #6, 1000.000000000000000 ) ;
#129 = APPROVAL_PERSON_ORGANIZATION ( #77, #70, #30 ) ;
#130 = ORIENTED_EDGE ( 'NONE', *, *, #7, .F. ) ;
#131 = CC_DESIGN_SECURITY_CLASSIFICATION ( #176, ( #32 ) ) ;
#132 = ADVANCED_FACE ( 'NONE', ( #183 ), #16, .F. ) ;
#133 = CARTESIAN_POINT ( 'NONE',  ( 24.99999999999999600, 25.00000000000001100, 0.0000000000000000000 ) ) ;
#134 = PLANE ( 'NONE',  #199 ) ;
#135 = ORIENTED_EDGE ( 'NONE', *, *, #125, .T. ) ;
#136 = VECTOR ( 'NONE', #175, 1000.000000000000000 ) ;
#137 = PLANE ( 'NONE',  #117 ) ;
#138 = ORIENTED_EDGE ( 'NONE', *, *, #202, .T. ) ;
#139 = VECTOR ( 'NONE', #84, 1000.000000000000000 ) ;
#140 = PERSON_AND_ORGANIZATION_ROLE ( 'classification_officer' ) ;
#141 = PERSON_AND_ORGANIZATION ( #72, #82 ) ;
#142 = VECTOR ( 'NONE', #224, 1000.000000000000000 ) ;
#143 = AXIS2_PLACEMENT_3D ( 'NONE', #228, #196, #27 ) ;
#144 = ORIENTED_EDGE ( 'NONE', *, *, #45, .F. ) ;
#145 = ADVANCED_FACE ( 'NONE', ( #58 ), #137, .F. ) ;
#146 = CARTESIAN_POINT ( 'NONE',  ( -24.99999999999999300, -25.00000000000000000, 3.000000000000000000 ) ) ;
#147 = COORDINATED_UNIVERSAL_TIME_OFFSET ( 5, 0, .BEHIND. ) ;
#148 = ORIENTED_EDGE ( 'NONE', *, *, #210, .T. ) ;
#149 = PRODUCT_DEFINITION ( 'UNKNOWN', '', #32, #31 ) ;
#150 = ADVANCED_FACE ( 'NONE', ( #153 ), #66, .T. ) ;
#151 = CARTESIAN_POINT ( 'NONE',  ( 24.99999999999999600, 25.00000000000001100, 3.000000000000000000 ) ) ;
#152 = CALENDAR_DATE ( 2017, 31, 1 ) ;
#153 = FACE_OUTER_BOUND ( 'NONE', #121, .T. ) ;
#154 = ORIENTED_EDGE ( 'NONE', *, *, #210, .F. ) ;
#155 = DATE_AND_TIME ( #163, #211 ) ;
#156 = COORDINATED_UNIVERSAL_TIME_OFFSET ( 5, 0, .BEHIND. ) ;
#157 = LINE ( 'NONE', #98, #128 ) ;
#158 = VERTEX_POINT ( 'NONE', #177 ) ;
#159 = CARTESIAN_POINT ( 'NONE',  ( 24.99999999999999600, 25.00000000000001100, 3.000000000000000000 ) ) ;
#160 = CARTESIAN_POINT ( 'NONE',  ( -24.99999999999999300, -25.00000000000000000, 0.0000000000000000000 ) ) ;
#161 = DIRECTION ( 'NONE',  ( -1.387778780781445400E-016, 1.000000000000000000, 0.0000000000000000000 ) ) ;
#162 = DIRECTION ( 'NONE',  ( -0.0000000000000000000, -0.0000000000000000000, -1.000000000000000000 ) ) ;
#163 = CALENDAR_DATE ( 2017, 31, 1 ) ;
#164 = MECHANICAL_CONTEXT ( 'NONE', #43, 'mechanical' ) ;
#165 = PERSON_AND_ORGANIZATION_ROLE ( 'design_supplier' ) ;
#166 = VECTOR ( 'NONE', #38, 1000.000000000000000 ) ;
#167 = MANIFOLD_SOLID_BREP ( 'Extrude1', #168 ) ;
#168 = CLOSED_SHELL ( 'NONE', ( #145, #127, #132, #39, #225, #150 ) ) ;
#169 = CARTESIAN_POINT ( 'NONE',  ( 24.99999999999999600, 25.00000000000001100, 3.000000000000000000 ) ) ;
#170 =( GEOMETRIC_REPRESENTATION_CONTEXT ( 3 ) GLOBAL_UNCERTAINTY_ASSIGNED_CONTEXT ( ( #68 ) ) GLOBAL_UNIT_ASSIGNED_CONTEXT ( ( #80, #118, #79 ) ) REPRESENTATION_CONTEXT ( 'NONE', 'WORKASPACE' ) );
#171 = LINE ( 'NONE', #236, #214 ) ;
#172 = ORIENTED_EDGE ( 'NONE', *, *, #7, .T. ) ;
#173 = PERSON_AND_ORGANIZATION_ROLE ( 'design_owner' ) ;
#174 = EDGE_LOOP ( 'NONE', ( #138, #154, #100, #197 ) ) ;
#175 = DIRECTION ( 'NONE',  ( -2.081668171172168500E-016, 1.000000000000000000, -0.0000000000000000000 ) ) ;
#176 = SECURITY_CLASSIFICATION ( '', '', #33 ) ;
#177 = CARTESIAN_POINT ( 'NONE',  ( -25.00000000000000000, 25.00000000000000400, 0.0000000000000000000 ) ) ;
#178 = PERSON_AND_ORGANIZATION_ROLE ( 'creator' ) ;
#179 = DATE_TIME_ROLE ( 'classification_date' ) ;
#180 = LINE ( 'NONE', #93, #111 ) ;
#181 = CARTESIAN_POINT ( 'NONE',  ( 25.00000000000000700, -24.99999999999999300, 3.000000000000000000 ) ) ;
#182 = CARTESIAN_POINT ( 'NONE',  ( -24.99999999999999300, -25.00000000000000000, 3.000000000000000000 ) ) ;
#183 = FACE_OUTER_BOUND ( 'NONE', #174, .T. ) ;
#184 = PLANE ( 'NONE',  #109 ) ;
#185 = CARTESIAN_POINT ( 'NONE',  ( 25.00000000000000700, -24.99999999999999300, 3.000000000000000000 ) ) ;
#186 = EDGE_CURVE ( 'NONE', #158, #105, #180, .T. ) ;
#187 = ORIENTED_EDGE ( 'NONE', *, *, #230, .T. ) ;
#188 = APPROVAL ( #193, 'UNSPECIFIED' ) ;
#189 = DATE_AND_TIME ( #101, #104 ) ;
#190 = EDGE_CURVE ( 'NONE', #3, #61, #18, .T. ) ;
#191 = APPLICATION_PROTOCOL_DEFINITION ( 'international standard', 'config_control_design', 1994, #57 ) ;
#192 = CC_DESIGN_APPROVAL ( #188, ( #149 ) ) ;
#193 = APPROVAL_STATUS ( 'not_yet_approved' ) ;
#194 = ORIENTED_EDGE ( 'NONE', *, *, #125, .F. ) ;
#195 = DIRECTION ( 'NONE',  ( -1.000000000000000000, -2.081668171172168300E-016, 0.0000000000000000000 ) ) ;
#196 = DIRECTION ( 'NONE',  ( 0.0000000000000000000, 0.0000000000000000000, -1.000000000000000000 ) ) ;
#197 = ORIENTED_EDGE ( 'NONE', *, *, #123, .T. ) ;
#198 = APPROVAL_STATUS ( 'not_yet_approved' ) ;
#199 = AXIS2_PLACEMENT_3D ( 'NONE', #185, #209, #88 ) ;
#200 = COORDINATED_UNIVERSAL_TIME_OFFSET ( 5, 0, .BEHIND. ) ;
#201 = DIRECTION ( 'NONE',  ( -1.000000000000000000, -1.387778780781445700E-016, 0.0000000000000000000 ) ) ;
#202 = EDGE_CURVE ( 'NONE', #64, #42, #120, .T. ) ;
#203 = PRODUCT_RELATED_PRODUCT_CATEGORY ( 'detail', '', ( #119 ) ) ;
#204 = PERSON_AND_ORGANIZATION ( #72, #82 ) ;
#205 = ORIENTED_EDGE ( 'NONE', *, *, #202, .F. ) ;
#206 = DIRECTION ( 'NONE',  ( 1.387778780781445400E-016, -1.000000000000000000, 0.0000000000000000000 ) ) ;
#207 = APPROVAL ( #220, 'UNSPECIFIED' ) ;
#208 = VECTOR ( 'NONE', #162, 1000.000000000000000 ) ;
#209 = DIRECTION ( 'NONE',  ( -1.387778780781445400E-016, 1.000000000000000000, 0.0000000000000000000 ) ) ;
#210 = EDGE_CURVE ( 'NONE', #83, #42, #157, .T. ) ;
#211 = LOCAL_TIME ( 14, 55, 22.00000000000000000, #12 ) ;
#212 = ORIENTED_EDGE ( 'NONE', *, *, #45, .T. ) ;
#213 = LOCAL_TIME ( 14, 55, 22.00000000000000000, #147 ) ;
#214 = VECTOR ( 'NONE', #67, 1000.000000000000000 ) ;
#215 = EDGE_CURVE ( 'NONE', #3, #158, #63, .T. ) ;
#216 = DIRECTION ( 'NONE',  ( 1.387778780781445700E-016, -1.000000000000000000, 0.0000000000000000000 ) ) ;
#217 = DIRECTION ( 'NONE',  ( 1.000000000000000000, 0.0000000000000000000, 0.0000000000000000000 ) ) ;
#218 = DIRECTION ( 'NONE',  ( 2.081668171172168300E-016, -1.000000000000000000, 0.0000000000000000000 ) ) ;
#219 = ORIENTED_EDGE ( 'NONE', *, *, #107, .F. ) ;
#220 = APPROVAL_STATUS ( 'not_yet_approved' ) ;
#221 = ORIENTED_EDGE ( 'NONE', *, *, #28, .F. ) ;
#222 = CALENDAR_DATE ( 2017, 31, 1 ) ;
#223 = ORIENTED_EDGE ( 'NONE', *, *, #28, .T. ) ;
#224 = DIRECTION ( 'NONE',  ( -1.000000000000000000, -1.387778780781445700E-016, 0.0000000000000000000 ) ) ;
#225 = ADVANCED_FACE ( 'NONE', ( #9 ), #96, .F. ) ;
#226 = ORIENTED_EDGE ( 'NONE', *, *, #123, .F. ) ;
#227 = DIRECTION ( 'NONE',  ( -1.000000000000000000, 0.0000000000000000000, -0.0000000000000000000 ) ) ;
#228 = CARTESIAN_POINT ( 'NONE',  ( -24.99999999999999300, -25.00000000000000000, 3.000000000000000000 ) ) ;
#229 = FACE_OUTER_BOUND ( 'NONE', #19, .T. ) ;
#230 = EDGE_CURVE ( 'NONE', #112, #83, #41, .T. ) ;
#231 = PERSON_AND_ORGANIZATION ( #72, #82 ) ;
#232 = CC_DESIGN_PERSON_AND_ORGANIZATION_ASSIGNMENT ( #56, #75, ( #149 ) ) ;
#233 = EDGE_LOOP ( 'NONE', ( #114, #135, #187, #103 ) ) ;
#234 = CARTESIAN_POINT ( 'NONE',  ( 24.99999999999999600, 25.00000000000001100, 3.000000000000000000 ) ) ;
#235 = APPROVAL_DATE_TIME ( #110, #188 ) ;
#236 = CARTESIAN_POINT ( 'NONE',  ( 25.00000000000000700, -24.99999999999999300, 3.000000000000000000 ) ) ;
#237 = APPROVAL_DATE_TIME ( #47, #207 ) ;
ENDSEC;
END-ISO-10303-21;
