ISO-10303-21;
HEADER;
FILE_DESCRIPTION (( 'STEP AP203' ),
    '1' );
FILE_NAME ('Web Model 15423_15423.step',
    '2020-07-31T18:41:29',
    ( '' ),
    ( '' ),
    'SwSTEP 2.0',
    'SolidWorks 2018',
    '' );
FILE_SCHEMA (( 'CONFIG_CONTROL_DESIGN' ));
ENDSEC;

DATA;
#1 = APPROVAL_STATUS ( 'not_yet_approved' ) ;
#2 = CARTESIAN_POINT ( 'NONE',  ( 6.349999999999999645, 7.776507174585692163E-16, 1.500000000000000000 ) ) ;
#3 = ORIENTED_EDGE ( 'NONE', *, *, #49, .F. ) ;
#4 = PRODUCT_RELATED_PRODUCT_CATEGORY ( 'detail', '', ( #62 ) ) ;
#5 = PLANE ( 'NONE',  #12 ) ;
#6 = DIRECTION ( 'NONE',  ( 1.000000000000000000, 0.0000000000000000000, 0.0000000000000000000 ) ) ;
#7 = CC_DESIGN_PERSON_AND_ORGANIZATION_ASSIGNMENT ( #44, #125, ( #97 ) ) ;
#8 = APPROVAL_STATUS ( 'not_yet_approved' ) ;
#9 = DATE_AND_TIME ( #81, #25 ) ;
#10 = ORIENTED_EDGE ( 'NONE', *, *, #76, .T. ) ;
#11 = COORDINATED_UNIVERSAL_TIME_OFFSET ( 5, 0, .BEHIND. ) ;
#12 = AXIS2_PLACEMENT_3D ( 'NONE', #105, #123, #107 ) ;
#13 = COORDINATED_UNIVERSAL_TIME_OFFSET ( 5, 0, .BEHIND. ) ;
#14 = CALENDAR_DATE ( 2020, 31, 7 ) ;
#15 = CARTESIAN_POINT ( 'NONE',  ( 6.349999999999999645, 7.776507174585692163E-16, -1.500000000000000000 ) ) ;
#16 = PRODUCT_DEFINITION_FORMATION_WITH_SPECIFIED_SOURCE ( 'ANY', '', #62, .NOT_KNOWN. ) ;
#17 = PERSON_AND_ORGANIZATION_ROLE ( 'creator' ) ;
#18 = CARTESIAN_POINT ( 'NONE',  ( 0.0000000000000000000, 0.0000000000000000000, 1.500000000000000000 ) ) ;
#19 = DIRECTION ( 'NONE',  ( 1.000000000000000000, 0.0000000000000000000, 0.0000000000000000000 ) ) ;
#20 = LINE ( 'NONE', #134, #132 ) ;
#21 = APPROVAL_ROLE ( '' ) ;
#22 = PERSON_AND_ORGANIZATION ( #78, #127 ) ;
#23 = APPROVAL ( #1, 'UNSPECIFIED' ) ;
#24 = VERTEX_POINT ( 'NONE', #15 ) ;
#25 = LOCAL_TIME ( 14, 41, 29.00000000000000000, #11 ) ;
#26 = CYLINDRICAL_SURFACE ( 'NONE', #103, 6.349999999999999645 ) ;
#27 = CC_DESIGN_APPROVAL ( #23, ( #16 ) ) ;
#28 = ORIENTED_EDGE ( 'NONE', *, *, #66, .T. ) ;
#29 = CIRCLE ( 'NONE', #92, 6.349999999999999645 ) ;
#30 = APPROVAL_DATE_TIME ( #39, #80 ) ;
#31 = DIRECTION ( 'NONE',  ( -0.0000000000000000000, -0.0000000000000000000, -1.000000000000000000 ) ) ;
#32 = AXIS2_PLACEMENT_3D ( 'NONE', #117, #114, #159 ) ;
#33 = CIRCLE ( 'NONE', #171, 6.349999999999999645 ) ;
#34 = AXIS2_PLACEMENT_3D ( 'NONE', #58, #146, #145 ) ;
#35 = LINE ( 'NONE', #42, #175 ) ;
#36 = DATE_AND_TIME ( #168, #55 ) ;
#37 = APPROVAL_DATE_TIME ( #9, #141 ) ;
#38 = PERSON_AND_ORGANIZATION ( #78, #127 ) ;
#39 = DATE_AND_TIME ( #170, #147 ) ;
#40 = AXIS2_PLACEMENT_3D ( 'NONE', #173, #82, #69 ) ;
#41 = EDGE_LOOP ( 'NONE', ( #84, #54, #70, #28 ) ) ;
#42 = CARTESIAN_POINT ( 'NONE',  ( -6.349999999999999645, 0.0000000000000000000, 1.500000000000000000 ) ) ;
#43 = CC_DESIGN_DATE_AND_TIME_ASSIGNMENT ( #101, #87, ( #156 ) ) ;
#44 = PERSON_AND_ORGANIZATION ( #78, #127 ) ;
#45 = CARTESIAN_POINT ( 'NONE',  ( 0.0000000000000000000, 0.0000000000000000000, 0.0000000000000000000 ) ) ;
#46 = CLOSED_SHELL ( 'NONE', ( #67, #52, #94, #140 ) ) ;
#47 = DATE_TIME_ROLE ( 'creation_date' ) ;
#48 = COORDINATED_UNIVERSAL_TIME_OFFSET ( 5, 0, .BEHIND. ) ;
#49 = EDGE_CURVE ( 'NONE', #24, #111, #93, .T. ) ;
#50 = EDGE_CURVE ( 'NONE', #74, #111, #35, .T. ) ;
#51 = PERSON_AND_ORGANIZATION ( #78, #127 ) ;
#52 = ADVANCED_FACE ( 'NONE', ( #169 ), #138, .T. ) ;
#53 = CC_DESIGN_SECURITY_CLASSIFICATION ( #156, ( #16 ) ) ;
#54 = ORIENTED_EDGE ( 'NONE', *, *, #163, .F. ) ;
#55 = LOCAL_TIME ( 14, 41, 29.00000000000000000, #124 ) ;
#56 = CARTESIAN_POINT ( 'NONE',  ( 0.0000000000000000000, 0.0000000000000000000, -1.500000000000000000 ) ) ;
#57 = SECURITY_CLASSIFICATION_LEVEL ( 'unclassified' ) ;
#58 = CARTESIAN_POINT ( 'NONE',  ( 0.0000000000000000000, 0.0000000000000000000, 1.500000000000000000 ) ) ;
#59 = DATE_AND_TIME ( #98, #112 ) ;
#60 = APPLICATION_CONTEXT ( 'configuration controlled 3d designs of mechanical parts and assemblies' ) ;
#61 = PERSON_AND_ORGANIZATION_ROLE ( 'design_owner' ) ;
#62 = PRODUCT ( 'Web Model 15423_15423', 'Web Model 15423_15423', '', ( #91 ) ) ;
#63 = ORIENTED_EDGE ( 'NONE', *, *, #50, .F. ) ;
#64 = UNCERTAINTY_MEASURE_WITH_UNIT (LENGTH_MEASURE( 1.000000000000000082E-05 ), #72, 'distance_accuracy_value', 'NONE');
#65 = FACE_OUTER_BOUND ( 'NONE', #106, .T. ) ;
#66 = EDGE_CURVE ( 'NONE', #111, #24, #33, .T. ) ;
#67 = ADVANCED_FACE ( 'NONE', ( #65 ), #26, .T. ) ;
#68 = EDGE_CURVE ( 'NONE', #77, #24, #20, .T. ) ;
#69 = DIRECTION ( 'NONE',  ( -1.000000000000000000, 0.0000000000000000000, 0.0000000000000000000 ) ) ;
#70 = ORIENTED_EDGE ( 'NONE', *, *, #50, .T. ) ;
#71 = PLANE ( 'NONE',  #32 ) ;
#72 =( LENGTH_UNIT ( ) NAMED_UNIT ( * ) SI_UNIT ( .MILLI., .METRE. ) );
#73 = DIRECTION ( 'NONE',  ( 1.000000000000000000, 0.0000000000000000000, 0.0000000000000000000 ) ) ;
#74 = VERTEX_POINT ( 'NONE', #161 ) ;
#75 = PERSON_AND_ORGANIZATION ( #78, #127 ) ;
#76 = EDGE_CURVE ( 'NONE', #77, #74, #29, .T. ) ;
#77 = VERTEX_POINT ( 'NONE', #2 ) ;
#78 = PERSON ( 'UNSPECIFIED', 'UNSPECIFIED', 'UNSPECIFIED', ('UNSPECIFIED'), ('UNSPECIFIED'), ('UNSPECIFIED') ) ;
#79 = FACE_OUTER_BOUND ( 'NONE', #172, .T. ) ;
#80 = APPROVAL ( #8, 'UNSPECIFIED' ) ;
#81 = CALENDAR_DATE ( 2020, 31, 7 ) ;
#82 = DIRECTION ( 'NONE',  ( -0.0000000000000000000, -0.0000000000000000000, -1.000000000000000000 ) ) ;
#83 = PRODUCT_DEFINITION_SHAPE ( 'NONE', 'NONE',  #97 ) ;
#84 = ORIENTED_EDGE ( 'NONE', *, *, #68, .F. ) ;
#85 = AXIS2_PLACEMENT_3D ( 'NONE', #45, #122, #73 ) ;
#86 = APPROVAL_STATUS ( 'not_yet_approved' ) ;
#87 = DATE_TIME_ROLE ( 'classification_date' ) ;
#88 = CARTESIAN_POINT ( 'NONE',  ( -6.349999999999999645, 0.0000000000000000000, -1.500000000000000000 ) ) ;
#89 = CC_DESIGN_PERSON_AND_ORGANIZATION_ASSIGNMENT ( #75, #61, ( #62 ) ) ;
#90 =( NAMED_UNIT ( * ) SI_UNIT ( $, .STERADIAN. ) SOLID_ANGLE_UNIT ( ) );
#91 = MECHANICAL_CONTEXT ( 'NONE', #104, 'mechanical' ) ;
#92 = AXIS2_PLACEMENT_3D ( 'NONE', #143, #137, #6 ) ;
#93 = CIRCLE ( 'NONE', #126, 6.349999999999999645 ) ;
#94 = ADVANCED_FACE ( 'NONE', ( #164 ), #71, .T. ) ;
#95 = CC_DESIGN_PERSON_AND_ORGANIZATION_ASSIGNMENT ( #165, #158, ( #156 ) ) ;
#96 = ORIENTED_EDGE ( 'NONE', *, *, #49, .T. ) ;
#97 = PRODUCT_DEFINITION ( 'UNKNOWN', '', #16, #151 ) ;
#98 = CALENDAR_DATE ( 2020, 31, 7 ) ;
#99 = MANIFOLD_SOLID_BREP ( 'Boss-Extrude1', #46 ) ;
#100 = DIRECTION ( 'NONE',  ( -0.0000000000000000000, -0.0000000000000000000, -1.000000000000000000 ) ) ;
#101 = DATE_AND_TIME ( #14, #130 ) ;
#102 = APPROVAL_ROLE ( '' ) ;
#103 = AXIS2_PLACEMENT_3D ( 'NONE', #18, #144, #116 ) ;
#104 = APPLICATION_CONTEXT ( 'configuration controlled 3d designs of mechanical parts and assemblies' ) ;
#105 = CARTESIAN_POINT ( 'NONE',  ( 0.0000000000000000000, 0.0000000000000000000, -1.500000000000000000 ) ) ;
#106 = EDGE_LOOP ( 'NONE', ( #139, #160, #96, #63 ) ) ;
#107 = DIRECTION ( 'NONE',  ( 1.000000000000000000, 0.0000000000000000000, -0.0000000000000000000 ) ) ;
#108 = SHAPE_DEFINITION_REPRESENTATION ( #83, #110 ) ;
#109 = CC_DESIGN_DATE_AND_TIME_ASSIGNMENT ( #59, #47, ( #97 ) ) ;
#110 = ADVANCED_BREP_SHAPE_REPRESENTATION ( 'Web Model 15423_15423', ( #99, #85 ), #129 ) ;
#111 = VERTEX_POINT ( 'NONE', #88 ) ;
#112 = LOCAL_TIME ( 14, 41, 29.00000000000000000, #142 ) ;
#113 = CARTESIAN_POINT ( 'NONE',  ( 0.0000000000000000000, 0.0000000000000000000, -1.500000000000000000 ) ) ;
#114 = DIRECTION ( 'NONE',  ( 0.0000000000000000000, 0.0000000000000000000, 1.000000000000000000 ) ) ;
#115 = CC_DESIGN_PERSON_AND_ORGANIZATION_ASSIGNMENT ( #155, #133, ( #16 ) ) ;
#116 = DIRECTION ( 'NONE',  ( -1.000000000000000000, 0.0000000000000000000, 0.0000000000000000000 ) ) ;
#117 = CARTESIAN_POINT ( 'NONE',  ( 0.0000000000000000000, 0.0000000000000000000, 1.500000000000000000 ) ) ;
#118 = CIRCLE ( 'NONE', #34, 6.349999999999999645 ) ;
#119 = APPROVAL_ROLE ( '' ) ;
#120 = APPROVAL_PERSON_ORGANIZATION ( #150, #80, #119 ) ;
#121 = APPROVAL_PERSON_ORGANIZATION ( #22, #141, #21 ) ;
#122 = DIRECTION ( 'NONE',  ( 0.0000000000000000000, 0.0000000000000000000, 1.000000000000000000 ) ) ;
#123 = DIRECTION ( 'NONE',  ( 0.0000000000000000000, 0.0000000000000000000, 1.000000000000000000 ) ) ;
#124 = COORDINATED_UNIVERSAL_TIME_OFFSET ( 5, 0, .BEHIND. ) ;
#125 = PERSON_AND_ORGANIZATION_ROLE ( 'creator' ) ;
#126 = AXIS2_PLACEMENT_3D ( 'NONE', #56, #154, #174 ) ;
#127 = ORGANIZATION ( 'UNSPECIFIED', 'UNSPECIFIED', '' ) ;
#128 = ORIENTED_EDGE ( 'NONE', *, *, #163, .T. ) ;
#129 =( GEOMETRIC_REPRESENTATION_CONTEXT ( 3 ) GLOBAL_UNCERTAINTY_ASSIGNED_CONTEXT ( ( #64 ) ) GLOBAL_UNIT_ASSIGNED_CONTEXT ( ( #72, #157, #90 ) ) REPRESENTATION_CONTEXT ( 'NONE', 'WORKASPACE' ) );
#130 = LOCAL_TIME ( 14, 41, 29.00000000000000000, #13 ) ;
#131 = CC_DESIGN_APPROVAL ( #80, ( #156 ) ) ;
#132 = VECTOR ( 'NONE', #31, 1000.000000000000000 ) ;
#133 = PERSON_AND_ORGANIZATION_ROLE ( 'design_supplier' ) ;
#134 = CARTESIAN_POINT ( 'NONE',  ( 6.349999999999999645, 7.776507174585692163E-16, 1.500000000000000000 ) ) ;
#135 = EDGE_LOOP ( 'NONE', ( #128, #10 ) ) ;
#136 = APPLICATION_PROTOCOL_DEFINITION ( 'international standard', 'config_control_design', 1994, #104 ) ;
#137 = DIRECTION ( 'NONE',  ( 0.0000000000000000000, 0.0000000000000000000, 1.000000000000000000 ) ) ;
#138 = CYLINDRICAL_SURFACE ( 'NONE', #40, 6.349999999999999645 ) ;
#139 = ORIENTED_EDGE ( 'NONE', *, *, #76, .F. ) ;
#140 = ADVANCED_FACE ( 'NONE', ( #79 ), #5, .F. ) ;
#141 = APPROVAL ( #86, 'UNSPECIFIED' ) ;
#142 = COORDINATED_UNIVERSAL_TIME_OFFSET ( 5, 0, .BEHIND. ) ;
#143 = CARTESIAN_POINT ( 'NONE',  ( 0.0000000000000000000, 0.0000000000000000000, 1.500000000000000000 ) ) ;
#144 = DIRECTION ( 'NONE',  ( -0.0000000000000000000, -0.0000000000000000000, -1.000000000000000000 ) ) ;
#145 = DIRECTION ( 'NONE',  ( 1.000000000000000000, 0.0000000000000000000, 0.0000000000000000000 ) ) ;
#146 = DIRECTION ( 'NONE',  ( 0.0000000000000000000, 0.0000000000000000000, 1.000000000000000000 ) ) ;
#147 = LOCAL_TIME ( 14, 41, 29.00000000000000000, #48 ) ;
#148 = DIRECTION ( 'NONE',  ( 0.0000000000000000000, 0.0000000000000000000, 1.000000000000000000 ) ) ;
#149 = CC_DESIGN_APPROVAL ( #141, ( #97 ) ) ;
#150 = PERSON_AND_ORGANIZATION ( #78, #127 ) ;
#151 = DESIGN_CONTEXT ( 'detailed design', #60, 'design' ) ;
#152 = ORIENTED_EDGE ( 'NONE', *, *, #66, .F. ) ;
#153 = APPROVAL_PERSON_ORGANIZATION ( #51, #23, #102 ) ;
#154 = DIRECTION ( 'NONE',  ( 0.0000000000000000000, 0.0000000000000000000, 1.000000000000000000 ) ) ;
#155 = PERSON_AND_ORGANIZATION ( #78, #127 ) ;
#156 = SECURITY_CLASSIFICATION ( '', '', #57 ) ;
#157 =( NAMED_UNIT ( * ) PLANE_ANGLE_UNIT ( ) SI_UNIT ( $, .RADIAN. ) );
#158 = PERSON_AND_ORGANIZATION_ROLE ( 'classification_officer' ) ;
#159 = DIRECTION ( 'NONE',  ( 1.000000000000000000, 0.0000000000000000000, -0.0000000000000000000 ) ) ;
#160 = ORIENTED_EDGE ( 'NONE', *, *, #68, .T. ) ;
#161 = CARTESIAN_POINT ( 'NONE',  ( -6.349999999999999645, 0.0000000000000000000, 1.500000000000000000 ) ) ;
#162 = APPLICATION_PROTOCOL_DEFINITION ( 'international standard', 'config_control_design', 1994, #60 ) ;
#163 = EDGE_CURVE ( 'NONE', #74, #77, #118, .T. ) ;
#164 = FACE_OUTER_BOUND ( 'NONE', #135, .T. ) ;
#165 = PERSON_AND_ORGANIZATION ( #78, #127 ) ;
#166 = APPROVAL_DATE_TIME ( #36, #23 ) ;
#167 = CC_DESIGN_PERSON_AND_ORGANIZATION_ASSIGNMENT ( #38, #17, ( #16 ) ) ;
#168 = CALENDAR_DATE ( 2020, 31, 7 ) ;
#169 = FACE_OUTER_BOUND ( 'NONE', #41, .T. ) ;
#170 = CALENDAR_DATE ( 2020, 31, 7 ) ;
#171 = AXIS2_PLACEMENT_3D ( 'NONE', #113, #148, #19 ) ;
#172 = EDGE_LOOP ( 'NONE', ( #152, #3 ) ) ;
#173 = CARTESIAN_POINT ( 'NONE',  ( 0.0000000000000000000, 0.0000000000000000000, 1.500000000000000000 ) ) ;
#174 = DIRECTION ( 'NONE',  ( 1.000000000000000000, 0.0000000000000000000, 0.0000000000000000000 ) ) ;
#175 = VECTOR ( 'NONE', #100, 1000.000000000000000 ) ;
ENDSEC;
END-ISO-10303-21;
