ISO-10303-21;
HEADER;
FILE_DESCRIPTION (( 'STEP AP203' ),
    '1' );
FILE_NAME ('Web Model 68804_68805.step',
    '2017-03-06T17:44:19',
    ( '' ),
    ( '' ),
    'SwSTEP 2.0',
    'SolidWorks 2016',
    '' );
FILE_SCHEMA (( 'CONFIG_CONTROL_DESIGN' ));
ENDSEC;

DATA;
#1 = DIRECTION ( 'NONE',  ( 1.000000000000000000, 0.0000000000000000000, 0.0000000000000000000 ) ) ;
#2 = EDGE_CURVE ( 'NONE', #58, #73, #24, .T. ) ;
#3 = DIRECTION ( 'NONE',  ( 0.0000000000000000000, 0.0000000000000000000, 1.000000000000000000 ) ) ;
#4 = APPROVAL_ROLE ( '' ) ;
#5 = CC_DESIGN_APPROVAL ( #171, ( #163 ) ) ;
#6 = MECHANICAL_CONTEXT ( 'NONE', #59, 'mechanical' ) ;
#7 = ORIENTED_EDGE ( 'NONE', *, *, #2, .F. ) ;
#8 = DATE_AND_TIME ( #152, #15 ) ;
#9 = ORIENTED_EDGE ( 'NONE', *, *, #11, .F. ) ;
#10 = ADVANCED_FACE ( 'NONE', ( #23 ), #32, .T. ) ;
#11 = EDGE_CURVE ( 'NONE', #162, #137, #19, .T. ) ;
#12 = AXIS2_PLACEMENT_3D ( 'NONE', #151, #71, #1 ) ;
#13 = COORDINATED_UNIVERSAL_TIME_OFFSET ( 5, 0, .BEHIND. ) ;
#14 = CC_DESIGN_PERSON_AND_ORGANIZATION_ASSIGNMENT ( #133, #87, ( #163 ) ) ;
#15 = LOCAL_TIME ( 12, 44, 19.00000000000000000, #123 ) ;
#16 = DIRECTION ( 'NONE',  ( 1.000000000000000000, 0.0000000000000000000, -0.0000000000000000000 ) ) ;
#17 = CARTESIAN_POINT ( 'NONE',  ( -6.499999999999999100, 0.0000000000000000000, 1.000000000000000000 ) ) ;
#18 = AXIS2_PLACEMENT_3D ( 'NONE', #60, #155, #68 ) ;
#19 = CIRCLE ( 'NONE', #92, 6.499999999999999100 ) ;
#20 = PLANE ( 'NONE',  #169 ) ;
#21 = PERSON_AND_ORGANIZATION_ROLE ( 'design_supplier' ) ;
#22 = PERSON_AND_ORGANIZATION ( #31, #111 ) ;
#23 = FACE_OUTER_BOUND ( 'NONE', #173, .T. ) ;
#24 = CIRCLE ( 'NONE', #12, 6.499999999999999100 ) ;
#25 = CC_DESIGN_PERSON_AND_ORGANIZATION_ASSIGNMENT ( #22, #21, ( #163 ) ) ;
#26 = CYLINDRICAL_SURFACE ( 'NONE', #62, 6.499999999999999100 ) ;
#27 = PRODUCT_DEFINITION_SHAPE ( 'NONE', 'NONE',  #121 ) ;
#28 = UNCERTAINTY_MEASURE_WITH_UNIT (LENGTH_MEASURE( 1.000000000000000100E-005 ), #114, 'distance_accuracy_value', 'NONE');
#29 = ORIENTED_EDGE ( 'NONE', *, *, #65, .F. ) ;
#30 =( GEOMETRIC_REPRESENTATION_CONTEXT ( 3 ) GLOBAL_UNCERTAINTY_ASSIGNED_CONTEXT ( ( #28 ) ) GLOBAL_UNIT_ASSIGNED_CONTEXT ( ( #114, #97, #56 ) ) REPRESENTATION_CONTEXT ( 'NONE', 'WORKASPACE' ) );
#31 = PERSON ( 'UNSPECIFIED', 'UNSPECIFIED', 'UNSPECIFIED', ('UNSPECIFIED'), ('UNSPECIFIED'), ('UNSPECIFIED') ) ;
#32 = PLANE ( 'NONE',  #132 ) ;
#33 = EDGE_CURVE ( 'NONE', #73, #58, #129, .T. ) ;
#34 = CARTESIAN_POINT ( 'NONE',  ( 0.0000000000000000000, 0.0000000000000000000, 1.000000000000000000 ) ) ;
#35 = CARTESIAN_POINT ( 'NONE',  ( 0.0000000000000000000, 0.0000000000000000000, 0.0000000000000000000 ) ) ;
#36 = SECURITY_CLASSIFICATION_LEVEL ( 'unclassified' ) ;
#37 = FACE_OUTER_BOUND ( 'NONE', #122, .T. ) ;
#38 = PERSON_AND_ORGANIZATION_ROLE ( 'classification_officer' ) ;
#39 = SECURITY_CLASSIFICATION ( '', '', #36 ) ;
#40 = EDGE_LOOP ( 'NONE', ( #158, #7 ) ) ;
#41 = APPROVAL_DATE_TIME ( #175, #127 ) ;
#42 = ORIENTED_EDGE ( 'NONE', *, *, #11, .T. ) ;
#43 = CC_DESIGN_PERSON_AND_ORGANIZATION_ASSIGNMENT ( #44, #38, ( #39 ) ) ;
#44 = PERSON_AND_ORGANIZATION ( #31, #111 ) ;
#45 = CARTESIAN_POINT ( 'NONE',  ( -6.499999999999999100, 0.0000000000000000000, -1.000000000000000000 ) ) ;
#46 = CARTESIAN_POINT ( 'NONE',  ( 6.499999999999999100, 7.960204194457794500E-016, 1.000000000000000000 ) ) ;
#47 = DIRECTION ( 'NONE',  ( 1.000000000000000000, 0.0000000000000000000, -0.0000000000000000000 ) ) ;
#48 = PERSON_AND_ORGANIZATION_ROLE ( 'design_owner' ) ;
#49 = ORIENTED_EDGE ( 'NONE', *, *, #77, .T. ) ;
#50 = DATE_AND_TIME ( #159, #124 ) ;
#51 = APPROVAL_DATE_TIME ( #8, #61 ) ;
#52 = CC_DESIGN_DATE_AND_TIME_ASSIGNMENT ( #95, #104, ( #39 ) ) ;
#53 = FACE_OUTER_BOUND ( 'NONE', #118, .T. ) ;
#54 = DIRECTION ( 'NONE',  ( 0.0000000000000000000, 0.0000000000000000000, 1.000000000000000000 ) ) ;
#55 = MANIFOLD_SOLID_BREP ( 'Boss-Extrude1', #78 ) ;
#56 =( NAMED_UNIT ( * ) SI_UNIT ( $, .STERADIAN. ) SOLID_ANGLE_UNIT ( ) );
#57 = EDGE_CURVE ( 'NONE', #137, #162, #96, .T. ) ;
#58 = VERTEX_POINT ( 'NONE', #84 ) ;
#59 = APPLICATION_CONTEXT ( 'configuration controlled 3d designs of mechanical parts and assemblies' ) ;
#60 = CARTESIAN_POINT ( 'NONE',  ( 0.0000000000000000000, 0.0000000000000000000, 1.000000000000000000 ) ) ;
#61 = APPROVAL ( #89, 'UNSPECIFIED' ) ;
#62 = AXIS2_PLACEMENT_3D ( 'NONE', #75, #153, #113 ) ;
#63 = PERSON_AND_ORGANIZATION ( #31, #111 ) ;
#64 = ADVANCED_FACE ( 'NONE', ( #161 ), #20, .F. ) ;
#65 = EDGE_CURVE ( 'NONE', #137, #58, #108, .T. ) ;
#66 = PRODUCT ( 'Web Model 68804_68805', 'Web Model 68804_68805', '', ( #6 ) ) ;
#67 = VECTOR ( 'NONE', #125, 1000.000000000000000 ) ;
#68 = DIRECTION ( 'NONE',  ( -1.000000000000000000, 0.0000000000000000000, 0.0000000000000000000 ) ) ;
#69 = CC_DESIGN_APPROVAL ( #61, ( #39 ) ) ;
#70 = ORIENTED_EDGE ( 'NONE', *, *, #2, .T. ) ;
#71 = DIRECTION ( 'NONE',  ( 0.0000000000000000000, 0.0000000000000000000, 1.000000000000000000 ) ) ;
#72 = DIRECTION ( 'NONE',  ( -0.0000000000000000000, -0.0000000000000000000, -1.000000000000000000 ) ) ;
#73 = VERTEX_POINT ( 'NONE', #45 ) ;
#74 = APPROVAL_ROLE ( '' ) ;
#75 = CARTESIAN_POINT ( 'NONE',  ( 0.0000000000000000000, 0.0000000000000000000, 1.000000000000000000 ) ) ;
#76 = PERSON_AND_ORGANIZATION ( #31, #111 ) ;
#77 = EDGE_CURVE ( 'NONE', #162, #73, #128, .T. ) ;
#78 = CLOSED_SHELL ( 'NONE', ( #80, #131, #10, #64 ) ) ;
#79 = CC_DESIGN_SECURITY_CLASSIFICATION ( #39, ( #163 ) ) ;
#80 = ADVANCED_FACE ( 'NONE', ( #53 ), #140, .T. ) ;
#81 = ORIENTED_EDGE ( 'NONE', *, *, #77, .F. ) ;
#82 = CARTESIAN_POINT ( 'NONE',  ( 6.499999999999999100, 7.960204194457794500E-016, 1.000000000000000000 ) ) ;
#83 = APPLICATION_PROTOCOL_DEFINITION ( 'international standard', 'config_control_design', 1994, #59 ) ;
#84 = CARTESIAN_POINT ( 'NONE',  ( 6.499999999999999100, 7.960204194457794500E-016, -1.000000000000000000 ) ) ;
#85 = APPLICATION_PROTOCOL_DEFINITION ( 'international standard', 'config_control_design', 1994, #142 ) ;
#86 = DIRECTION ( 'NONE',  ( 0.0000000000000000000, 0.0000000000000000000, 1.000000000000000000 ) ) ;
#87 = PERSON_AND_ORGANIZATION_ROLE ( 'creator' ) ;
#88 = DIRECTION ( 'NONE',  ( 0.0000000000000000000, 0.0000000000000000000, 1.000000000000000000 ) ) ;
#89 = APPROVAL_STATUS ( 'not_yet_approved' ) ;
#90 = APPROVAL_PERSON_ORGANIZATION ( #63, #171, #74 ) ;
#91 = PRODUCT_RELATED_PRODUCT_CATEGORY ( 'detail', '', ( #66 ) ) ;
#92 = AXIS2_PLACEMENT_3D ( 'NONE', #98, #164, #138 ) ;
#93 = APPROVAL_DATE_TIME ( #50, #171 ) ;
#94 = ORIENTED_EDGE ( 'NONE', *, *, #57, .F. ) ;
#95 = DATE_AND_TIME ( #148, #144 ) ;
#96 = CIRCLE ( 'NONE', #168, 6.499999999999999100 ) ;
#97 =( NAMED_UNIT ( * ) PLANE_ANGLE_UNIT ( ) SI_UNIT ( $, .RADIAN. ) );
#98 = CARTESIAN_POINT ( 'NONE',  ( 0.0000000000000000000, 0.0000000000000000000, 1.000000000000000000 ) ) ;
#99 = DIRECTION ( 'NONE',  ( 0.0000000000000000000, 0.0000000000000000000, 1.000000000000000000 ) ) ;
#100 = APPROVAL_STATUS ( 'not_yet_approved' ) ;
#101 = COORDINATED_UNIVERSAL_TIME_OFFSET ( 5, 0, .BEHIND. ) ;
#102 = AXIS2_PLACEMENT_3D ( 'NONE', #35, #86, #166 ) ;
#103 = VECTOR ( 'NONE', #72, 1000.000000000000000 ) ;
#104 = DATE_TIME_ROLE ( 'classification_date' ) ;
#105 = DATE_AND_TIME ( #170, #174 ) ;
#106 = SHAPE_DEFINITION_REPRESENTATION ( #27, #120 ) ;
#107 = DESIGN_CONTEXT ( 'detailed design', #142, 'design' ) ;
#108 = LINE ( 'NONE', #46, #103 ) ;
#109 = ORIENTED_EDGE ( 'NONE', *, *, #57, .T. ) ;
#110 = CC_DESIGN_PERSON_AND_ORGANIZATION_ASSIGNMENT ( #117, #48, ( #66 ) ) ;
#111 = ORGANIZATION ( 'UNSPECIFIED', 'UNSPECIFIED', '' ) ;
#112 = CARTESIAN_POINT ( 'NONE',  ( 0.0000000000000000000, 0.0000000000000000000, -1.000000000000000000 ) ) ;
#113 = DIRECTION ( 'NONE',  ( -1.000000000000000000, 0.0000000000000000000, 0.0000000000000000000 ) ) ;
#114 =( LENGTH_UNIT ( ) NAMED_UNIT ( * ) SI_UNIT ( .MILLI., .METRE. ) );
#115 = DIRECTION ( 'NONE',  ( 1.000000000000000000, 0.0000000000000000000, 0.0000000000000000000 ) ) ;
#116 = PERSON_AND_ORGANIZATION_ROLE ( 'creator' ) ;
#117 = PERSON_AND_ORGANIZATION ( #31, #111 ) ;
#118 = EDGE_LOOP ( 'NONE', ( #94, #172, #70, #81 ) ) ;
#119 = APPROVAL_PERSON_ORGANIZATION ( #76, #61, #156 ) ;
#120 = ADVANCED_BREP_SHAPE_REPRESENTATION ( 'Web Model 68804_68805', ( #55, #102 ), #30 ) ;
#121 = PRODUCT_DEFINITION ( 'UNKNOWN', '', #163, #107 ) ;
#122 = EDGE_LOOP ( 'NONE', ( #29, #9, #49, #150 ) ) ;
#123 = COORDINATED_UNIVERSAL_TIME_OFFSET ( 5, 0, .BEHIND. ) ;
#124 = LOCAL_TIME ( 12, 44, 19.00000000000000000, #13 ) ;
#125 = DIRECTION ( 'NONE',  ( -0.0000000000000000000, -0.0000000000000000000, -1.000000000000000000 ) ) ;
#126 = DATE_TIME_ROLE ( 'creation_date' ) ;
#127 = APPROVAL ( #100, 'UNSPECIFIED' ) ;
#128 = LINE ( 'NONE', #17, #67 ) ;
#129 = CIRCLE ( 'NONE', #145, 6.499999999999999100 ) ;
#130 = PERSON_AND_ORGANIZATION ( #31, #111 ) ;
#131 = ADVANCED_FACE ( 'NONE', ( #37 ), #26, .T. ) ;
#132 = AXIS2_PLACEMENT_3D ( 'NONE', #34, #3, #16 ) ;
#133 = PERSON_AND_ORGANIZATION ( #31, #111 ) ;
#134 = CC_DESIGN_APPROVAL ( #127, ( #121 ) ) ;
#135 = COORDINATED_UNIVERSAL_TIME_OFFSET ( 5, 0, .BEHIND. ) ;
#136 = CARTESIAN_POINT ( 'NONE',  ( -6.499999999999999100, 0.0000000000000000000, 1.000000000000000000 ) ) ;
#137 = VERTEX_POINT ( 'NONE', #82 ) ;
#138 = DIRECTION ( 'NONE',  ( 1.000000000000000000, 0.0000000000000000000, 0.0000000000000000000 ) ) ;
#139 = CARTESIAN_POINT ( 'NONE',  ( 0.0000000000000000000, 0.0000000000000000000, 1.000000000000000000 ) ) ;
#140 = CYLINDRICAL_SURFACE ( 'NONE', #18, 6.499999999999999100 ) ;
#141 = APPROVAL_STATUS ( 'not_yet_approved' ) ;
#142 = APPLICATION_CONTEXT ( 'configuration controlled 3d designs of mechanical parts and assemblies' ) ;
#143 = APPROVAL_PERSON_ORGANIZATION ( #130, #127, #4 ) ;
#144 = LOCAL_TIME ( 12, 44, 19.00000000000000000, #101 ) ;
#145 = AXIS2_PLACEMENT_3D ( 'NONE', #112, #54, #115 ) ;
#146 = COORDINATED_UNIVERSAL_TIME_OFFSET ( 5, 0, .BEHIND. ) ;
#147 = CC_DESIGN_PERSON_AND_ORGANIZATION_ASSIGNMENT ( #160, #116, ( #121 ) ) ;
#148 = CALENDAR_DATE ( 2017, 6, 3 ) ;
#149 = LOCAL_TIME ( 12, 44, 19.00000000000000000, #146 ) ;
#150 = ORIENTED_EDGE ( 'NONE', *, *, #33, .T. ) ;
#151 = CARTESIAN_POINT ( 'NONE',  ( 0.0000000000000000000, 0.0000000000000000000, -1.000000000000000000 ) ) ;
#152 = CALENDAR_DATE ( 2017, 6, 3 ) ;
#153 = DIRECTION ( 'NONE',  ( -0.0000000000000000000, -0.0000000000000000000, -1.000000000000000000 ) ) ;
#154 = CARTESIAN_POINT ( 'NONE',  ( 0.0000000000000000000, 0.0000000000000000000, -1.000000000000000000 ) ) ;
#155 = DIRECTION ( 'NONE',  ( -0.0000000000000000000, -0.0000000000000000000, -1.000000000000000000 ) ) ;
#156 = APPROVAL_ROLE ( '' ) ;
#157 = CC_DESIGN_DATE_AND_TIME_ASSIGNMENT ( #105, #126, ( #121 ) ) ;
#158 = ORIENTED_EDGE ( 'NONE', *, *, #33, .F. ) ;
#159 = CALENDAR_DATE ( 2017, 6, 3 ) ;
#160 = PERSON_AND_ORGANIZATION ( #31, #111 ) ;
#161 = FACE_OUTER_BOUND ( 'NONE', #40, .T. ) ;
#162 = VERTEX_POINT ( 'NONE', #136 ) ;
#163 = PRODUCT_DEFINITION_FORMATION_WITH_SPECIFIED_SOURCE ( 'ANY', '', #66, .NOT_KNOWN. ) ;
#164 = DIRECTION ( 'NONE',  ( 0.0000000000000000000, 0.0000000000000000000, 1.000000000000000000 ) ) ;
#165 = DIRECTION ( 'NONE',  ( 1.000000000000000000, 0.0000000000000000000, 0.0000000000000000000 ) ) ;
#166 = DIRECTION ( 'NONE',  ( 1.000000000000000000, 0.0000000000000000000, 0.0000000000000000000 ) ) ;
#167 = CALENDAR_DATE ( 2017, 6, 3 ) ;
#168 = AXIS2_PLACEMENT_3D ( 'NONE', #139, #99, #165 ) ;
#169 = AXIS2_PLACEMENT_3D ( 'NONE', #154, #88, #47 ) ;
#170 = CALENDAR_DATE ( 2017, 6, 3 ) ;
#171 = APPROVAL ( #141, 'UNSPECIFIED' ) ;
#172 = ORIENTED_EDGE ( 'NONE', *, *, #65, .T. ) ;
#173 = EDGE_LOOP ( 'NONE', ( #42, #109 ) ) ;
#174 = LOCAL_TIME ( 12, 44, 19.00000000000000000, #135 ) ;
#175 = DATE_AND_TIME ( #167, #149 ) ;
ENDSEC;
END-ISO-10303-21;
