ISO-10303-21;
HEADER;
FILE_DESCRIPTION (( 'STEP AP203' ),
    '1' );
FILE_NAME ('Web Model 18947_18952.step',
    '2021-07-12T18:32:02',
    ( '' ),
    ( '' ),
    'SwSTEP 2.0',
    'SolidWorks 2018',
    '' );
FILE_SCHEMA (( 'CONFIG_CONTROL_DESIGN' ));
ENDSEC;

DATA;
#1 = PERSON_AND_ORGANIZATION_ROLE ( 'creator' ) ;
#2 = ORIENTED_EDGE ( 'NONE', *, *, #47, .F. ) ;
#3 = CC_DESIGN_SECURITY_CLASSIFICATION ( #158, ( #36 ) ) ;
#4 = PERSON_AND_ORGANIZATION ( #15, #33 ) ;
#5 = ORIENTED_EDGE ( 'NONE', *, *, #123, .T. ) ;
#6 = FACE_OUTER_BOUND ( 'NONE', #102, .T. ) ;
#7 = LOCAL_TIME ( 14, 32, 2.000000000000000000, #82 ) ;
#8 = ADVANCED_BREP_SHAPE_REPRESENTATION ( 'Web Model 18947_18952', ( #89, #54 ), #14 ) ;
#9 = CC_DESIGN_APPROVAL ( #119, ( #36 ) ) ;
#10 = ORIENTED_EDGE ( 'NONE', *, *, #49, .F. ) ;
#11 = CARTESIAN_POINT ( 'NONE',  ( -37.50000000000000711, 0.000000000000000000, 2.000000000000000000 ) ) ;
#12 = CARTESIAN_POINT ( 'NONE',  ( 0.000000000000000000, 0.000000000000000000, 0.000000000000000000 ) ) ;
#13 = DIRECTION ( 'NONE',  ( 0.000000000000000000, 0.000000000000000000, 1.000000000000000000 ) ) ;
#14 =( GEOMETRIC_REPRESENTATION_CONTEXT ( 3 ) GLOBAL_UNCERTAINTY_ASSIGNED_CONTEXT ( ( #42 ) ) GLOBAL_UNIT_ASSIGNED_CONTEXT ( ( #27, #28, #165 ) ) REPRESENTATION_CONTEXT ( 'NONE', 'WORKASPACE' ) );
#15 = PERSON ( 'UNSPECIFIED', 'UNSPECIFIED', 'UNSPECIFIED', ('UNSPECIFIED'), ('UNSPECIFIED'), ('UNSPECIFIED') ) ;
#16 = DATE_AND_TIME ( #45, #121 ) ;
#17 = EDGE_LOOP ( 'NONE', ( #97, #63 ) ) ;
#18 = VERTEX_POINT ( 'NONE', #101 ) ;
#19 = COORDINATED_UNIVERSAL_TIME_OFFSET ( 5, 0, .BEHIND. ) ;
#20 = ORIENTED_EDGE ( 'NONE', *, *, #47, .T. ) ;
#21 = DIRECTION ( 'NONE',  ( 1.000000000000000000, 0.000000000000000000, 0.000000000000000000 ) ) ;
#22 = CALENDAR_DATE ( 2021, 12, 7 ) ;
#23 = AXIS2_PLACEMENT_3D ( 'NONE', #138, #13, #171 ) ;
#24 = DIRECTION ( 'NONE',  ( 0.000000000000000000, 0.000000000000000000, 1.000000000000000000 ) ) ;
#25 = DIRECTION ( 'NONE',  ( 1.000000000000000000, 0.000000000000000000, 0.000000000000000000 ) ) ;
#26 = PERSON_AND_ORGANIZATION ( #15, #33 ) ;
#27 =( LENGTH_UNIT ( ) NAMED_UNIT ( * ) SI_UNIT ( .MILLI., .METRE. ) );
#28 =( NAMED_UNIT ( * ) PLANE_ANGLE_UNIT ( ) SI_UNIT ( $, .RADIAN. ) );
#29 = VECTOR ( 'NONE', #83, 1000.000000000000000 ) ;
#30 = ADVANCED_FACE ( 'NONE', ( #6 ), #169, .T. ) ;
#31 = DATE_AND_TIME ( #128, #7 ) ;
#32 = ORIENTED_EDGE ( 'NONE', *, *, #147, .T. ) ;
#33 = ORGANIZATION ( 'UNSPECIFIED', 'UNSPECIFIED', '' ) ;
#34 = LOCAL_TIME ( 14, 32, 2.000000000000000000, #78 ) ;
#35 = EDGE_CURVE ( 'NONE', #18, #66, #139, .T. ) ;
#36 = PRODUCT_DEFINITION_FORMATION_WITH_SPECIFIED_SOURCE ( 'ANY', '', #164, .NOT_KNOWN. ) ;
#37 = ADVANCED_FACE ( 'NONE', ( #92 ), #39, .F. ) ;
#38 = DIRECTION ( 'NONE',  ( 0.000000000000000000, 0.000000000000000000, 1.000000000000000000 ) ) ;
#39 = PLANE ( 'NONE',  #134 ) ;
#40 = CARTESIAN_POINT ( 'NONE',  ( 0.000000000000000000, 0.000000000000000000, 2.000000000000000000 ) ) ;
#41 = APPLICATION_CONTEXT ( 'configuration controlled 3d designs of mechanical parts and assemblies' ) ;
#42 = UNCERTAINTY_MEASURE_WITH_UNIT (LENGTH_MEASURE( 1.000000000000000082E-05 ), #27, 'distance_accuracy_value', 'NONE');
#43 = DATE_AND_TIME ( #79, #120 ) ;
#44 = DIRECTION ( 'NONE',  ( 0.000000000000000000, 0.000000000000000000, 1.000000000000000000 ) ) ;
#45 = CALENDAR_DATE ( 2021, 12, 7 ) ;
#46 = APPROVAL_STATUS ( 'not_yet_approved' ) ;
#47 = EDGE_CURVE ( 'NONE', #154, #66, #156, .T. ) ;
#48 = FACE_OUTER_BOUND ( 'NONE', #108, .T. ) ;
#49 = EDGE_CURVE ( 'NONE', #57, #18, #52, .T. ) ;
#50 = APPROVAL_PERSON_ORGANIZATION ( #155, #119, #59 ) ;
#51 = AXIS2_PLACEMENT_3D ( 'NONE', #135, #99, #21 ) ;
#52 = LINE ( 'NONE', #170, #132 ) ;
#53 = DATE_AND_TIME ( #142, #34 ) ;
#54 = AXIS2_PLACEMENT_3D ( 'NONE', #88, #44, #140 ) ;
#55 = EDGE_CURVE ( 'NONE', #57, #154, #141, .T. ) ;
#56 = APPROVAL_STATUS ( 'not_yet_approved' ) ;
#57 = VERTEX_POINT ( 'NONE', #71 ) ;
#58 = FACE_OUTER_BOUND ( 'NONE', #149, .T. ) ;
#59 = APPROVAL_ROLE ( '' ) ;
#60 = CC_DESIGN_DATE_AND_TIME_ASSIGNMENT ( #106, #61, ( #158 ) ) ;
#61 = DATE_TIME_ROLE ( 'classification_date' ) ;
#62 = AXIS2_PLACEMENT_3D ( 'NONE', #148, #110, #85 ) ;
#63 = ORIENTED_EDGE ( 'NONE', *, *, #35, .F. ) ;
#64 = ORIENTED_EDGE ( 'NONE', *, *, #123, .F. ) ;
#65 = COORDINATED_UNIVERSAL_TIME_OFFSET ( 5, 0, .BEHIND. ) ;
#66 = VERTEX_POINT ( 'NONE', #136 ) ;
#67 = CIRCLE ( 'NONE', #70, 37.50000000000000711 ) ;
#68 = DIRECTION ( 'NONE',  ( -0.000000000000000000, -0.000000000000000000, -1.000000000000000000 ) ) ;
#69 = CARTESIAN_POINT ( 'NONE',  ( -37.50000000000000711, 0.000000000000000000, 2.000000000000000000 ) ) ;
#70 = AXIS2_PLACEMENT_3D ( 'NONE', #160, #124, #111 ) ;
#71 = CARTESIAN_POINT ( 'NONE',  ( 37.50000000000000711, 4.592425496802575156E-15, 2.000000000000000000 ) ) ;
#72 = PERSON_AND_ORGANIZATION_ROLE ( 'design_owner' ) ;
#73 = PERSON_AND_ORGANIZATION_ROLE ( 'design_supplier' ) ;
#74 = PRODUCT_DEFINITION ( 'UNKNOWN', '', #36, #130 ) ;
#75 = DIRECTION ( 'NONE',  ( -1.000000000000000000, 0.000000000000000000, 0.000000000000000000 ) ) ;
#76 = PRODUCT_RELATED_PRODUCT_CATEGORY ( 'detail', '', ( #164 ) ) ;
#77 = APPROVAL ( #46, 'UNSPECIFIED' ) ;
#78 = COORDINATED_UNIVERSAL_TIME_OFFSET ( 5, 0, .BEHIND. ) ;
#79 = CALENDAR_DATE ( 2021, 12, 7 ) ;
#80 = DIRECTION ( 'NONE',  ( -0.000000000000000000, -0.000000000000000000, -1.000000000000000000 ) ) ;
#81 = ORIENTED_EDGE ( 'NONE', *, *, #49, .T. ) ;
#82 = COORDINATED_UNIVERSAL_TIME_OFFSET ( 5, 0, .BEHIND. ) ;
#83 = DIRECTION ( 'NONE',  ( -0.000000000000000000, -0.000000000000000000, -1.000000000000000000 ) ) ;
#84 = PLANE ( 'NONE',  #23 ) ;
#85 = DIRECTION ( 'NONE',  ( 1.000000000000000000, 0.000000000000000000, 0.000000000000000000 ) ) ;
#86 = APPROVAL_STATUS ( 'not_yet_approved' ) ;
#87 = DATE_TIME_ROLE ( 'creation_date' ) ;
#88 = CARTESIAN_POINT ( 'NONE',  ( 0.000000000000000000, 0.000000000000000000, 0.000000000000000000 ) ) ;
#89 = MANIFOLD_SOLID_BREP ( 'Boss-Extrude1', #145 ) ;
#90 = APPROVAL_DATE_TIME ( #16, #77 ) ;
#91 = APPROVAL_ROLE ( '' ) ;
#92 = FACE_OUTER_BOUND ( 'NONE', #17, .T. ) ;
#93 = PERSON_AND_ORGANIZATION ( #15, #33 ) ;
#94 = APPROVAL ( #56, 'UNSPECIFIED' ) ;
#95 = ORIENTED_EDGE ( 'NONE', *, *, #35, .T. ) ;
#96 = APPROVAL_DATE_TIME ( #31, #119 ) ;
#97 = ORIENTED_EDGE ( 'NONE', *, *, #147, .F. ) ;
#98 = PERSON_AND_ORGANIZATION ( #15, #33 ) ;
#99 = DIRECTION ( 'NONE',  ( 0.000000000000000000, 0.000000000000000000, 1.000000000000000000 ) ) ;
#100 = CC_DESIGN_PERSON_AND_ORGANIZATION_ASSIGNMENT ( #98, #73, ( #36 ) ) ;
#101 = CARTESIAN_POINT ( 'NONE',  ( 37.50000000000000711, 4.592425496802575156E-15, 0.000000000000000000 ) ) ;
#102 = EDGE_LOOP ( 'NONE', ( #10, #64, #20, #32 ) ) ;
#103 = CARTESIAN_POINT ( 'NONE',  ( 0.000000000000000000, 0.000000000000000000, 2.000000000000000000 ) ) ;
#104 = APPLICATION_PROTOCOL_DEFINITION ( 'international standard', 'config_control_design', 1994, #175 ) ;
#105 = CIRCLE ( 'NONE', #62, 37.50000000000000711 ) ;
#106 = DATE_AND_TIME ( #22, #118 ) ;
#107 = AXIS2_PLACEMENT_3D ( 'NONE', #103, #68, #75 ) ;
#108 = EDGE_LOOP ( 'NONE', ( #5, #131 ) ) ;
#109 = CC_DESIGN_APPROVAL ( #94, ( #74 ) ) ;
#110 = DIRECTION ( 'NONE',  ( 0.000000000000000000, 0.000000000000000000, 1.000000000000000000 ) ) ;
#111 = DIRECTION ( 'NONE',  ( 1.000000000000000000, 0.000000000000000000, 0.000000000000000000 ) ) ;
#112 = PERSON_AND_ORGANIZATION ( #15, #33 ) ;
#113 = PERSON_AND_ORGANIZATION_ROLE ( 'creator' ) ;
#114 = ADVANCED_FACE ( 'NONE', ( #48 ), #84, .T. ) ;
#115 = CC_DESIGN_PERSON_AND_ORGANIZATION_ASSIGNMENT ( #167, #1, ( #36 ) ) ;
#116 = CC_DESIGN_PERSON_AND_ORGANIZATION_ASSIGNMENT ( #112, #113, ( #74 ) ) ;
#117 = AXIS2_PLACEMENT_3D ( 'NONE', #150, #38, #25 ) ;
#118 = LOCAL_TIME ( 14, 32, 2.000000000000000000, #65 ) ;
#119 = APPROVAL ( #86, 'UNSPECIFIED' ) ;
#120 = LOCAL_TIME ( 14, 32, 2.000000000000000000, #19 ) ;
#121 = LOCAL_TIME ( 14, 32, 2.000000000000000000, #163 ) ;
#122 = DIRECTION ( 'NONE',  ( -0.000000000000000000, -0.000000000000000000, -1.000000000000000000 ) ) ;
#123 = EDGE_CURVE ( 'NONE', #154, #57, #105, .T. ) ;
#124 = DIRECTION ( 'NONE',  ( 0.000000000000000000, 0.000000000000000000, 1.000000000000000000 ) ) ;
#125 = SECURITY_CLASSIFICATION_LEVEL ( 'unclassified' ) ;
#126 = CC_DESIGN_APPROVAL ( #77, ( #158 ) ) ;
#127 = APPROVAL_ROLE ( '' ) ;
#128 = CALENDAR_DATE ( 2021, 12, 7 ) ;
#129 = AXIS2_PLACEMENT_3D ( 'NONE', #40, #122, #159 ) ;
#130 = DESIGN_CONTEXT ( 'detailed design', #41, 'design' ) ;
#131 = ORIENTED_EDGE ( 'NONE', *, *, #55, .T. ) ;
#132 = VECTOR ( 'NONE', #80, 1000.000000000000000 ) ;
#133 = APPROVAL_PERSON_ORGANIZATION ( #4, #77, #127 ) ;
#134 = AXIS2_PLACEMENT_3D ( 'NONE', #12, #24, #151 ) ;
#135 = CARTESIAN_POINT ( 'NONE',  ( 0.000000000000000000, 0.000000000000000000, 2.000000000000000000 ) ) ;
#136 = CARTESIAN_POINT ( 'NONE',  ( -37.50000000000000711, 0.000000000000000000, 0.000000000000000000 ) ) ;
#137 = PERSON_AND_ORGANIZATION ( #15, #33 ) ;
#138 = CARTESIAN_POINT ( 'NONE',  ( 0.000000000000000000, 0.000000000000000000, 2.000000000000000000 ) ) ;
#139 = CIRCLE ( 'NONE', #117, 37.50000000000000711 ) ;
#140 = DIRECTION ( 'NONE',  ( 1.000000000000000000, 0.000000000000000000, 0.000000000000000000 ) ) ;
#141 = CIRCLE ( 'NONE', #51, 37.50000000000000711 ) ;
#142 = CALENDAR_DATE ( 2021, 12, 7 ) ;
#143 = CC_DESIGN_PERSON_AND_ORGANIZATION_ASSIGNMENT ( #93, #162, ( #158 ) ) ;
#144 = SHAPE_DEFINITION_REPRESENTATION ( #161, #8 ) ;
#145 = CLOSED_SHELL ( 'NONE', ( #173, #30, #114, #37 ) ) ;
#146 = APPROVAL_DATE_TIME ( #43, #94 ) ;
#147 = EDGE_CURVE ( 'NONE', #66, #18, #67, .T. ) ;
#148 = CARTESIAN_POINT ( 'NONE',  ( 0.000000000000000000, 0.000000000000000000, 2.000000000000000000 ) ) ;
#149 = EDGE_LOOP ( 'NONE', ( #168, #81, #95, #2 ) ) ;
#150 = CARTESIAN_POINT ( 'NONE',  ( 0.000000000000000000, 0.000000000000000000, 0.000000000000000000 ) ) ;
#151 = DIRECTION ( 'NONE',  ( 1.000000000000000000, 0.000000000000000000, -0.000000000000000000 ) ) ;
#152 = CYLINDRICAL_SURFACE ( 'NONE', #107, 37.50000000000000711 ) ;
#153 = MECHANICAL_CONTEXT ( 'NONE', #175, 'mechanical' ) ;
#154 = VERTEX_POINT ( 'NONE', #69 ) ;
#155 = PERSON_AND_ORGANIZATION ( #15, #33 ) ;
#156 = LINE ( 'NONE', #11, #29 ) ;
#157 = CC_DESIGN_PERSON_AND_ORGANIZATION_ASSIGNMENT ( #137, #72, ( #164 ) ) ;
#158 = SECURITY_CLASSIFICATION ( '', '', #125 ) ;
#159 = DIRECTION ( 'NONE',  ( -1.000000000000000000, 0.000000000000000000, 0.000000000000000000 ) ) ;
#160 = CARTESIAN_POINT ( 'NONE',  ( 0.000000000000000000, 0.000000000000000000, 0.000000000000000000 ) ) ;
#161 = PRODUCT_DEFINITION_SHAPE ( 'NONE', 'NONE',  #74 ) ;
#162 = PERSON_AND_ORGANIZATION_ROLE ( 'classification_officer' ) ;
#163 = COORDINATED_UNIVERSAL_TIME_OFFSET ( 5, 0, .BEHIND. ) ;
#164 = PRODUCT ( 'Web Model 18947_18952', 'Web Model 18947_18952', '', ( #153 ) ) ;
#165 =( NAMED_UNIT ( * ) SI_UNIT ( $, .STERADIAN. ) SOLID_ANGLE_UNIT ( ) );
#166 = APPROVAL_PERSON_ORGANIZATION ( #26, #94, #91 ) ;
#167 = PERSON_AND_ORGANIZATION ( #15, #33 ) ;
#168 = ORIENTED_EDGE ( 'NONE', *, *, #55, .F. ) ;
#169 = CYLINDRICAL_SURFACE ( 'NONE', #129, 37.50000000000000711 ) ;
#170 = CARTESIAN_POINT ( 'NONE',  ( 37.50000000000000711, 4.592425496802575156E-15, 2.000000000000000000 ) ) ;
#171 = DIRECTION ( 'NONE',  ( 1.000000000000000000, 0.000000000000000000, -0.000000000000000000 ) ) ;
#172 = APPLICATION_PROTOCOL_DEFINITION ( 'international standard', 'config_control_design', 1994, #41 ) ;
#173 = ADVANCED_FACE ( 'NONE', ( #58 ), #152, .T. ) ;
#174 = CC_DESIGN_DATE_AND_TIME_ASSIGNMENT ( #53, #87, ( #74 ) ) ;
#175 = APPLICATION_CONTEXT ( 'configuration controlled 3d designs of mechanical parts and assemblies' ) ;
ENDSEC;
END-ISO-10303-21;
