ISO-10303-21;
HEADER;
FILE_DESCRIPTION (( 'STEP AP203' ),
    '1' );
FILE_NAME ('Web Model 68414.STEP',
    '2017-01-31T19:59:47',
    ( '' ),
    ( '' ),
    'SwSTEP 2.0',
    'SolidWorks 2016',
    '' );
FILE_SCHEMA (( 'CONFIG_CONTROL_DESIGN' ));
ENDSEC;

DATA;
#1 = EDGE_CURVE ( 'NONE', #116, #158, #171, .T. ) ;
#2 = PRODUCT_RELATED_PRODUCT_CATEGORY ( 'detail', '', ( #161 ) ) ;
#3 = CALENDAR_DATE ( 2017, 31, 1 ) ;
#4 = VECTOR ( 'NONE', #225, 1000.000000000000000 ) ;
#5 = APPROVAL_DATE_TIME ( #105, #203 ) ;
#6 = CARTESIAN_POINT ( 'NONE',  ( 37.50000000000000000, 25.00000000000000000, 3.000000000000000000 ) ) ;
#7 = ORIENTED_EDGE ( 'NONE', *, *, #93, .F. ) ;
#8 = DIRECTION ( 'NONE',  ( -0.0000000000000000000, 1.000000000000000000, -0.0000000000000000000 ) ) ;
#9 = APPROVAL ( #137, 'UNSPECIFIED' ) ;
#10 = APPLICATION_PROTOCOL_DEFINITION ( 'international standard', 'config_control_design', 1994, #191 ) ;
#11 = ORIENTED_EDGE ( 'NONE', *, *, #232, .T. ) ;
#12 =( NAMED_UNIT ( * ) PLANE_ANGLE_UNIT ( ) SI_UNIT ( $, .RADIAN. ) );
#13 = DIRECTION ( 'NONE',  ( 1.000000000000000000, 1.387778780781445700E-016, -0.0000000000000000000 ) ) ;
#14 = DATE_TIME_ROLE ( 'creation_date' ) ;
#15 = APPROVAL_PERSON_ORGANIZATION ( #24, #9, #104 ) ;
#16 = LOCAL_TIME ( 14, 59, 47.00000000000000000, #193 ) ;
#17 = APPROVAL_ROLE ( '' ) ;
#18 = VERTEX_POINT ( 'NONE', #174 ) ;
#19 = VERTEX_POINT ( 'NONE', #185 ) ;
#20 = AXIS2_PLACEMENT_3D ( 'NONE', #64, #178, #188 ) ;
#21 = CALENDAR_DATE ( 2017, 31, 1 ) ;
#22 = FACE_OUTER_BOUND ( 'NONE', #197, .T. ) ;
#23 = CC_DESIGN_DATE_AND_TIME_ASSIGNMENT ( #53, #14, ( #98 ) ) ;
#24 = PERSON_AND_ORGANIZATION ( #167, #80 ) ;
#25 = FACE_OUTER_BOUND ( 'NONE', #43, .T. ) ;
#26 = VECTOR ( 'NONE', #156, 1000.000000000000000 ) ;
#27 = CARTESIAN_POINT ( 'NONE',  ( -37.50000000000000000, -25.00000000000000700, 3.000000000000000000 ) ) ;
#28 = AXIS2_PLACEMENT_3D ( 'NONE', #211, #190, #233 ) ;
#29 = VERTEX_POINT ( 'NONE', #65 ) ;
#30 = PLANE ( 'NONE',  #92 ) ;
#31 = DIRECTION ( 'NONE',  ( -1.000000000000000000, 0.0000000000000000000, -0.0000000000000000000 ) ) ;
#32 = APPROVAL_DATE_TIME ( #224, #9 ) ;
#33 = CARTESIAN_POINT ( 'NONE',  ( -37.50000000000000000, 24.99999999999999300, 3.000000000000000000 ) ) ;
#34 = ADVANCED_BREP_SHAPE_REPRESENTATION ( 'Web Model 68414', ( #52, #172 ), #60 ) ;
#35 = CARTESIAN_POINT ( 'NONE',  ( -37.50000000000000000, 24.99999999999999300, 3.000000000000000000 ) ) ;
#36 = LINE ( 'NONE', #187, #121 ) ;
#37 = LINE ( 'NONE', #35, #41 ) ;
#38 = ORIENTED_EDGE ( 'NONE', *, *, #93, .T. ) ;
#39 = PRODUCT_DEFINITION_FORMATION_WITH_SPECIFIED_SOURCE ( 'ANY', '', #161, .NOT_KNOWN. ) ;
#40 = ADVANCED_FACE ( 'NONE', ( #82 ), #99, .F. ) ;
#41 = VECTOR ( 'NONE', #103, 1000.000000000000000 ) ;
#42 = CARTESIAN_POINT ( 'NONE',  ( 37.50000000000000000, -24.99999999999999600, 3.000000000000000000 ) ) ;
#43 = EDGE_LOOP ( 'NONE', ( #102, #189, #151, #202 ) ) ;
#44 = CARTESIAN_POINT ( 'NONE',  ( 37.50000000000000000, 25.00000000000000000, 0.0000000000000000000 ) ) ;
#45 = CLOSED_SHELL ( 'NONE', ( #199, #148, #40, #114, #170, #220 ) ) ;
#46 = CC_DESIGN_DATE_AND_TIME_ASSIGNMENT ( #115, #235, ( #164 ) ) ;
#47 = CARTESIAN_POINT ( 'NONE',  ( 37.50000000000000000, 25.00000000000000000, 0.0000000000000000000 ) ) ;
#48 = PERSON_AND_ORGANIZATION ( #167, #80 ) ;
#49 = EDGE_CURVE ( 'NONE', #117, #215, #113, .T. ) ;
#50 = APPLICATION_PROTOCOL_DEFINITION ( 'international standard', 'config_control_design', 1994, #210 ) ;
#51 = CC_DESIGN_PERSON_AND_ORGANIZATION_ASSIGNMENT ( #58, #75, ( #39 ) ) ;
#52 = MANIFOLD_SOLID_BREP ( 'Extrude1', #45 ) ;
#53 = DATE_AND_TIME ( #21, #223 ) ;
#54 = CC_DESIGN_PERSON_AND_ORGANIZATION_ASSIGNMENT ( #62, #68, ( #161 ) ) ;
#55 = COORDINATED_UNIVERSAL_TIME_OFFSET ( 5, 0, .BEHIND. ) ;
#56 = CARTESIAN_POINT ( 'NONE',  ( 37.50000000000000000, 25.00000000000000000, 0.0000000000000000000 ) ) ;
#57 = LOCAL_TIME ( 14, 59, 47.00000000000000000, #184 ) ;
#58 = PERSON_AND_ORGANIZATION ( #167, #80 ) ;
#59 = EDGE_LOOP ( 'NONE', ( #222, #7, #86, #169 ) ) ;
#60 =( GEOMETRIC_REPRESENTATION_CONTEXT ( 3 ) GLOBAL_UNCERTAINTY_ASSIGNED_CONTEXT ( ( #176 ) ) GLOBAL_UNIT_ASSIGNED_CONTEXT ( ( #70, #12, #159 ) ) REPRESENTATION_CONTEXT ( 'NONE', 'WORKASPACE' ) );
#61 = COORDINATED_UNIVERSAL_TIME_OFFSET ( 5, 0, .BEHIND. ) ;
#62 = PERSON_AND_ORGANIZATION ( #167, #80 ) ;
#63 = ORIENTED_EDGE ( 'NONE', *, *, #152, .F. ) ;
#64 = CARTESIAN_POINT ( 'NONE',  ( 37.50000000000000000, 25.00000000000000000, 3.000000000000000000 ) ) ;
#65 = CARTESIAN_POINT ( 'NONE',  ( -37.50000000000000000, 24.99999999999999300, 0.0000000000000000000 ) ) ;
#66 = PLANE ( 'NONE',  #145 ) ;
#67 = DIRECTION ( 'NONE',  ( 0.0000000000000000000, 0.0000000000000000000, -1.000000000000000000 ) ) ;
#68 = PERSON_AND_ORGANIZATION_ROLE ( 'design_owner' ) ;
#69 = VECTOR ( 'NONE', #107, 1000.000000000000000 ) ;
#70 =( LENGTH_UNIT ( ) NAMED_UNIT ( * ) SI_UNIT ( .MILLI., .METRE. ) );
#71 = APPROVAL_STATUS ( 'not_yet_approved' ) ;
#72 = SHAPE_DEFINITION_REPRESENTATION ( #168, #34 ) ;
#73 = LINE ( 'NONE', #6, #180 ) ;
#74 = DESIGN_CONTEXT ( 'detailed design', #191, 'design' ) ;
#75 = PERSON_AND_ORGANIZATION_ROLE ( 'design_supplier' ) ;
#76 = EDGE_CURVE ( 'NONE', #19, #117, #108, .T. ) ;
#77 = ORIENTED_EDGE ( 'NONE', *, *, #1, .F. ) ;
#78 = ORIENTED_EDGE ( 'NONE', *, *, #201, .T. ) ;
#79 = EDGE_CURVE ( 'NONE', #29, #18, #36, .T. ) ;
#80 = ORGANIZATION ( 'UNSPECIFIED', 'UNSPECIFIED', '' ) ;
#81 = DIRECTION ( 'NONE',  ( -0.0000000000000000000, -0.0000000000000000000, -1.000000000000000000 ) ) ;
#82 = FACE_OUTER_BOUND ( 'NONE', #59, .T. ) ;
#83 = COORDINATED_UNIVERSAL_TIME_OFFSET ( 5, 0, .BEHIND. ) ;
#84 = DIRECTION ( 'NONE',  ( -1.000000000000000000, -9.251858538542971600E-017, 0.0000000000000000000 ) ) ;
#85 = CARTESIAN_POINT ( 'NONE',  ( -37.50000000000000000, 24.99999999999999300, 3.000000000000000000 ) ) ;
#86 = ORIENTED_EDGE ( 'NONE', *, *, #49, .F. ) ;
#87 = APPROVAL_STATUS ( 'not_yet_approved' ) ;
#88 = AXIS2_PLACEMENT_3D ( 'NONE', #226, #227, #132 ) ;
#89 = VECTOR ( 'NONE', #123, 1000.000000000000000 ) ;
#90 = ORIENTED_EDGE ( 'NONE', *, *, #228, .T. ) ;
#91 = ORIENTED_EDGE ( 'NONE', *, *, #110, .F. ) ;
#92 = AXIS2_PLACEMENT_3D ( 'NONE', #118, #100, #157 ) ;
#93 = EDGE_CURVE ( 'NONE', #215, #158, #73, .T. ) ;
#94 = CARTESIAN_POINT ( 'NONE',  ( 37.50000000000000000, -24.99999999999999600, 0.0000000000000000000 ) ) ;
#95 = CALENDAR_DATE ( 2017, 31, 1 ) ;
#96 = PERSON_AND_ORGANIZATION ( #167, #80 ) ;
#97 = PLANE ( 'NONE',  #88 ) ;
#98 = PRODUCT_DEFINITION ( 'UNKNOWN', '', #39, #74 ) ;
#99 = PLANE ( 'NONE',  #20 ) ;
#100 = DIRECTION ( 'NONE',  ( 9.251858538542970300E-017, -1.000000000000000000, 0.0000000000000000000 ) ) ;
#101 = CARTESIAN_POINT ( 'NONE',  ( 0.0000000000000000000, 0.0000000000000000000, 0.0000000000000000000 ) ) ;
#102 = ORIENTED_EDGE ( 'NONE', *, *, #205, .T. ) ;
#103 = DIRECTION ( 'NONE',  ( -0.0000000000000000000, -0.0000000000000000000, -1.000000000000000000 ) ) ;
#104 = APPROVAL_ROLE ( '' ) ;
#105 = DATE_AND_TIME ( #143, #231 ) ;
#106 = FACE_OUTER_BOUND ( 'NONE', #131, .T. ) ;
#107 = DIRECTION ( 'NONE',  ( -1.000000000000000000, -9.251858538542971600E-017, 0.0000000000000000000 ) ) ;
#108 = LINE ( 'NONE', #136, #4 ) ;
#109 = ORIENTED_EDGE ( 'NONE', *, *, #205, .F. ) ;
#110 = EDGE_CURVE ( 'NONE', #117, #116, #175, .T. ) ;
#111 = PERSON_AND_ORGANIZATION ( #167, #80 ) ;
#112 = LINE ( 'NONE', #163, #129 ) ;
#113 = LINE ( 'NONE', #133, #26 ) ;
#114 = ADVANCED_FACE ( 'NONE', ( #22 ), #30, .F. ) ;
#115 = DATE_AND_TIME ( #3, #16 ) ;
#116 = VERTEX_POINT ( 'NONE', #94 ) ;
#117 = VERTEX_POINT ( 'NONE', #42 ) ;
#118 = CARTESIAN_POINT ( 'NONE',  ( 37.50000000000000000, 25.00000000000000000, 3.000000000000000000 ) ) ;
#119 = ORIENTED_EDGE ( 'NONE', *, *, #177, .F. ) ;
#120 = PLANE ( 'NONE',  #183 ) ;
#121 = VECTOR ( 'NONE', #206, 1000.000000000000000 ) ;
#122 = DIRECTION ( 'NONE',  ( -0.0000000000000000000, -0.0000000000000000000, -1.000000000000000000 ) ) ;
#123 = DIRECTION ( 'NONE',  ( 0.0000000000000000000, -1.000000000000000000, 0.0000000000000000000 ) ) ;
#124 = DIRECTION ( 'NONE',  ( 0.0000000000000000000, 0.0000000000000000000, 1.000000000000000000 ) ) ;
#125 = PLANE ( 'NONE',  #28 ) ;
#126 = CARTESIAN_POINT ( 'NONE',  ( -37.50000000000000000, -25.00000000000000700, 0.0000000000000000000 ) ) ;
#127 = CC_DESIGN_APPROVAL ( #194, ( #39 ) ) ;
#128 = PERSON_AND_ORGANIZATION_ROLE ( 'classification_officer' ) ;
#129 = VECTOR ( 'NONE', #13, 1000.000000000000000 ) ;
#130 = LINE ( 'NONE', #160, #69 ) ;
#131 = EDGE_LOOP ( 'NONE', ( #218, #196, #77, #234 ) ) ;
#132 = DIRECTION ( 'NONE',  ( -1.000000000000000000, -1.387778780781445400E-016, 0.0000000000000000000 ) ) ;
#133 = CARTESIAN_POINT ( 'NONE',  ( 37.50000000000000000, 25.00000000000000000, 3.000000000000000000 ) ) ;
#134 = EDGE_LOOP ( 'NONE', ( #78, #91, #186, #209 ) ) ;
#135 = DIRECTION ( 'NONE',  ( -0.0000000000000000000, -0.0000000000000000000, -1.000000000000000000 ) ) ;
#136 = CARTESIAN_POINT ( 'NONE',  ( 37.50000000000000000, -24.99999999999999600, 3.000000000000000000 ) ) ;
#137 = APPROVAL_STATUS ( 'not_yet_approved' ) ;
#138 = LINE ( 'NONE', #33, #89 ) ;
#139 = DIRECTION ( 'NONE',  ( 1.000000000000000000, 0.0000000000000000000, 0.0000000000000000000 ) ) ;
#140 = DIRECTION ( 'NONE',  ( -1.000000000000000000, 0.0000000000000000000, -0.0000000000000000000 ) ) ;
#141 = VECTOR ( 'NONE', #84, 1000.000000000000000 ) ;
#142 = EDGE_LOOP ( 'NONE', ( #217, #63, #109, #11 ) ) ;
#143 = CALENDAR_DATE ( 2017, 31, 1 ) ;
#144 = VECTOR ( 'NONE', #122, 1000.000000000000000 ) ;
#145 = AXIS2_PLACEMENT_3D ( 'NONE', #126, #67, #140 ) ;
#146 = LOCAL_TIME ( 14, 59, 47.00000000000000000, #83 ) ;
#147 = VECTOR ( 'NONE', #81, 1000.000000000000000 ) ;
#148 = ADVANCED_FACE ( 'NONE', ( #221 ), #97, .F. ) ;
#149 = CC_DESIGN_APPROVAL ( #9, ( #98 ) ) ;
#150 = PERSON_AND_ORGANIZATION ( #167, #80 ) ;
#151 = ORIENTED_EDGE ( 'NONE', *, *, #49, .T. ) ;
#152 = EDGE_CURVE ( 'NONE', #19, #18, #208, .T. ) ;
#153 = APPROVAL_DATE_TIME ( #213, #194 ) ;
#154 = CALENDAR_DATE ( 2017, 31, 1 ) ;
#155 = VECTOR ( 'NONE', #8, 1000.000000000000000 ) ;
#156 = DIRECTION ( 'NONE',  ( -0.0000000000000000000, 1.000000000000000000, -0.0000000000000000000 ) ) ;
#157 = DIRECTION ( 'NONE',  ( 1.000000000000000000, 9.251858538542970300E-017, 0.0000000000000000000 ) ) ;
#158 = VERTEX_POINT ( 'NONE', #47 ) ;
#159 =( NAMED_UNIT ( * ) SI_UNIT ( $, .STERADIAN. ) SOLID_ANGLE_UNIT ( ) );
#160 = CARTESIAN_POINT ( 'NONE',  ( 37.50000000000000000, 25.00000000000000000, 3.000000000000000000 ) ) ;
#161 = PRODUCT ( 'Web Model 68414', 'Web Model 68414', '', ( #229 ) ) ;
#162 = ORIENTED_EDGE ( 'NONE', *, *, #232, .F. ) ;
#163 = CARTESIAN_POINT ( 'NONE',  ( 37.50000000000000000, -24.99999999999999600, 0.0000000000000000000 ) ) ;
#164 = SECURITY_CLASSIFICATION ( '', '', #216 ) ;
#165 = PERSON_AND_ORGANIZATION_ROLE ( 'creator' ) ;
#166 = FACE_OUTER_BOUND ( 'NONE', #142, .T. ) ;
#167 = PERSON ( 'UNSPECIFIED', 'UNSPECIFIED', 'UNSPECIFIED', ('UNSPECIFIED'), ('UNSPECIFIED'), ('UNSPECIFIED') ) ;
#168 = PRODUCT_DEFINITION_SHAPE ( 'NONE', 'NONE',  #98 ) ;
#169 = ORIENTED_EDGE ( 'NONE', *, *, #110, .T. ) ;
#170 = ADVANCED_FACE ( 'NONE', ( #25 ), #120, .F. ) ;
#171 = LINE ( 'NONE', #44, #155 ) ;
#172 = AXIS2_PLACEMENT_3D ( 'NONE', #101, #124, #139 ) ;
#173 = CARTESIAN_POINT ( 'NONE',  ( -37.50000000000000000, -25.00000000000000700, 3.000000000000000000 ) ) ;
#174 = CARTESIAN_POINT ( 'NONE',  ( -37.50000000000000000, -25.00000000000000700, 0.0000000000000000000 ) ) ;
#175 = LINE ( 'NONE', #207, #147 ) ;
#176 = UNCERTAINTY_MEASURE_WITH_UNIT (LENGTH_MEASURE( 1.000000000000000100E-005 ), #70, 'distance_accuracy_value', 'NONE');
#177 = EDGE_CURVE ( 'NONE', #215, #182, #130, .T. ) ;
#178 = DIRECTION ( 'NONE',  ( -1.000000000000000000, 0.0000000000000000000, 0.0000000000000000000 ) ) ;
#179 = CARTESIAN_POINT ( 'NONE',  ( 37.50000000000000000, 25.00000000000000000, 3.000000000000000000 ) ) ;
#180 = VECTOR ( 'NONE', #135, 1000.000000000000000 ) ;
#181 = CC_DESIGN_PERSON_AND_ORGANIZATION_ASSIGNMENT ( #150, #128, ( #164 ) ) ;
#182 = VERTEX_POINT ( 'NONE', #85 ) ;
#183 = AXIS2_PLACEMENT_3D ( 'NONE', #173, #192, #31 ) ;
#184 = COORDINATED_UNIVERSAL_TIME_OFFSET ( 5, 0, .BEHIND. ) ;
#185 = CARTESIAN_POINT ( 'NONE',  ( -37.50000000000000000, -25.00000000000000700, 3.000000000000000000 ) ) ;
#186 = ORIENTED_EDGE ( 'NONE', *, *, #76, .F. ) ;
#187 = CARTESIAN_POINT ( 'NONE',  ( -37.50000000000000000, 24.99999999999999300, 0.0000000000000000000 ) ) ;
#188 = DIRECTION ( 'NONE',  ( 0.0000000000000000000, 0.0000000000000000000, 1.000000000000000000 ) ) ;
#189 = ORIENTED_EDGE ( 'NONE', *, *, #76, .T. ) ;
#190 = DIRECTION ( 'NONE',  ( 1.000000000000000000, 0.0000000000000000000, -0.0000000000000000000 ) ) ;
#191 = APPLICATION_CONTEXT ( 'configuration controlled 3d designs of mechanical parts and assemblies' ) ;
#192 = DIRECTION ( 'NONE',  ( 0.0000000000000000000, 0.0000000000000000000, -1.000000000000000000 ) ) ;
#193 = COORDINATED_UNIVERSAL_TIME_OFFSET ( 5, 0, .BEHIND. ) ;
#194 = APPROVAL ( #71, 'UNSPECIFIED' ) ;
#195 = PERSON_AND_ORGANIZATION ( #167, #80 ) ;
#196 = ORIENTED_EDGE ( 'NONE', *, *, #228, .F. ) ;
#197 = EDGE_LOOP ( 'NONE', ( #90, #162, #119, #38 ) ) ;
#198 = APPROVAL_ROLE ( '' ) ;
#199 = ADVANCED_FACE ( 'NONE', ( #166 ), #125, .F. ) ;
#200 = LINE ( 'NONE', #56, #141 ) ;
#201 = EDGE_CURVE ( 'NONE', #18, #116, #112, .T. ) ;
#202 = ORIENTED_EDGE ( 'NONE', *, *, #177, .T. ) ;
#203 = APPROVAL ( #87, 'UNSPECIFIED' ) ;
#204 = APPROVAL_PERSON_ORGANIZATION ( #48, #194, #17 ) ;
#205 = EDGE_CURVE ( 'NONE', #182, #19, #138, .T. ) ;
#206 = DIRECTION ( 'NONE',  ( 0.0000000000000000000, -1.000000000000000000, 0.0000000000000000000 ) ) ;
#207 = CARTESIAN_POINT ( 'NONE',  ( 37.50000000000000000, -24.99999999999999600, 3.000000000000000000 ) ) ;
#208 = LINE ( 'NONE', #27, #144 ) ;
#209 = ORIENTED_EDGE ( 'NONE', *, *, #152, .T. ) ;
#210 = APPLICATION_CONTEXT ( 'configuration controlled 3d designs of mechanical parts and assemblies' ) ;
#211 = CARTESIAN_POINT ( 'NONE',  ( -37.50000000000000000, 24.99999999999999300, 3.000000000000000000 ) ) ;
#212 = CC_DESIGN_PERSON_AND_ORGANIZATION_ASSIGNMENT ( #195, #165, ( #39 ) ) ;
#213 = DATE_AND_TIME ( #95, #57 ) ;
#214 = PERSON_AND_ORGANIZATION_ROLE ( 'creator' ) ;
#215 = VERTEX_POINT ( 'NONE', #179 ) ;
#216 = SECURITY_CLASSIFICATION_LEVEL ( 'unclassified' ) ;
#217 = ORIENTED_EDGE ( 'NONE', *, *, #79, .T. ) ;
#218 = ORIENTED_EDGE ( 'NONE', *, *, #79, .F. ) ;
#219 = CC_DESIGN_APPROVAL ( #203, ( #164 ) ) ;
#220 = ADVANCED_FACE ( 'NONE', ( #106 ), #66, .T. ) ;
#221 = FACE_OUTER_BOUND ( 'NONE', #134, .T. ) ;
#222 = ORIENTED_EDGE ( 'NONE', *, *, #1, .T. ) ;
#223 = LOCAL_TIME ( 14, 59, 47.00000000000000000, #55 ) ;
#224 = DATE_AND_TIME ( #154, #146 ) ;
#225 = DIRECTION ( 'NONE',  ( 1.000000000000000000, 1.387778780781445700E-016, -0.0000000000000000000 ) ) ;
#226 = CARTESIAN_POINT ( 'NONE',  ( 37.50000000000000000, -24.99999999999999600, 3.000000000000000000 ) ) ;
#227 = DIRECTION ( 'NONE',  ( -1.387778780781445400E-016, 1.000000000000000000, 0.0000000000000000000 ) ) ;
#228 = EDGE_CURVE ( 'NONE', #158, #29, #200, .T. ) ;
#229 = MECHANICAL_CONTEXT ( 'NONE', #210, 'mechanical' ) ;
#230 = CC_DESIGN_SECURITY_CLASSIFICATION ( #164, ( #39 ) ) ;
#231 = LOCAL_TIME ( 14, 59, 47.00000000000000000, #61 ) ;
#232 = EDGE_CURVE ( 'NONE', #182, #29, #37, .T. ) ;
#233 = DIRECTION ( 'NONE',  ( -0.0000000000000000000, 0.0000000000000000000, -1.000000000000000000 ) ) ;
#234 = ORIENTED_EDGE ( 'NONE', *, *, #201, .F. ) ;
#235 = DATE_TIME_ROLE ( 'classification_date' ) ;
#236 = CC_DESIGN_PERSON_AND_ORGANIZATION_ASSIGNMENT ( #96, #214, ( #98 ) ) ;
#237 = APPROVAL_PERSON_ORGANIZATION ( #111, #203, #198 ) ;
ENDSEC;
END-ISO-10303-21;
