ISO-10303-21;
HEADER;
FILE_DESCRIPTION (( 'STEP AP203' ),
    '1' );
FILE_NAME ('Web Model 65876.STEP',
    '2017-01-31T19:30:01',
    ( '' ),
    ( '' ),
    'SwSTEP 2.0',
    'SolidWorks 2016',
    '' );
FILE_SCHEMA (( 'CONFIG_CONTROL_DESIGN' ));
ENDSEC;

DATA;
#1 = EDGE_CURVE ( 'NONE', #103, #130, #173, .T. ) ;
#2 = PERSON_AND_ORGANIZATION ( #63, #138 ) ;
#3 = ORIENTED_EDGE ( 'NONE', *, *, #1, .T. ) ;
#4 = ADVANCED_FACE ( 'NONE', ( #152 ), #100, .T. ) ;
#5 = DIRECTION ( 'NONE',  ( 0.0000000000000000000, 0.0000000000000000000, 1.000000000000000000 ) ) ;
#6 = APPROVAL_PERSON_ORGANIZATION ( #116, #34, #95 ) ;
#7 = ORIENTED_EDGE ( 'NONE', *, *, #64, .T. ) ;
#8 = CARTESIAN_POINT ( 'NONE',  ( 0.0000000000000000000, 0.0000000000000000000, 0.0000000000000000000 ) ) ;
#9 = MANIFOLD_SOLID_BREP ( 'Extrude1', #172 ) ;
#10 = CARTESIAN_POINT ( 'NONE',  ( 0.0000000000000000000, 0.0000000000000000000, 0.0000000000000000000 ) ) ;
#11 = PERSON_AND_ORGANIZATION_ROLE ( 'creator' ) ;
#12 = CALENDAR_DATE ( 2017, 31, 1 ) ;
#13 = CC_DESIGN_PERSON_AND_ORGANIZATION_ASSIGNMENT ( #50, #11, ( #150 ) ) ;
#14 = CALENDAR_DATE ( 2017, 31, 1 ) ;
#15 = ORIENTED_EDGE ( 'NONE', *, *, #128, .F. ) ;
#16 = COORDINATED_UNIVERSAL_TIME_OFFSET ( 5, 0, .BEHIND. ) ;
#17 = CC_DESIGN_APPROVAL ( #34, ( #150 ) ) ;
#18 = DIRECTION ( 'NONE',  ( -1.000000000000000000, 0.0000000000000000000, 0.0000000000000000000 ) ) ;
#19 = PERSON_AND_ORGANIZATION ( #63, #138 ) ;
#20 = PRODUCT_DEFINITION_SHAPE ( 'NONE', 'NONE',  #47 ) ;
#21 = APPROVAL_DATE_TIME ( #122, #34 ) ;
#22 = CARTESIAN_POINT ( 'NONE',  ( 0.0000000000000000000, 0.0000000000000000000, 4.000000000000000000 ) ) ;
#23 = DIRECTION ( 'NONE',  ( 1.000000000000000000, 0.0000000000000000000, -0.0000000000000000000 ) ) ;
#24 = COORDINATED_UNIVERSAL_TIME_OFFSET ( 5, 0, .BEHIND. ) ;
#25 = DIRECTION ( 'NONE',  ( 1.000000000000000000, 0.0000000000000000000, 0.0000000000000000000 ) ) ;
#26 = DIRECTION ( 'NONE',  ( 0.0000000000000000000, 0.0000000000000000000, 1.000000000000000000 ) ) ;
#27 = ORIENTED_EDGE ( 'NONE', *, *, #32, .F. ) ;
#28 = EDGE_CURVE ( 'NONE', #103, #175, #117, .T. ) ;
#29 = DATE_AND_TIME ( #14, #124 ) ;
#30 = AXIS2_PLACEMENT_3D ( 'NONE', #10, #26, #25 ) ;
#31 = ADVANCED_FACE ( 'NONE', ( #168 ), #97, .T. ) ;
#32 = EDGE_CURVE ( 'NONE', #130, #160, #149, .T. ) ;
#33 = FACE_OUTER_BOUND ( 'NONE', #99, .T. ) ;
#34 = APPROVAL ( #75, 'UNSPECIFIED' ) ;
#35 = APPLICATION_PROTOCOL_DEFINITION ( 'international standard', 'config_control_design', 1994, #119 ) ;
#36 = CC_DESIGN_PERSON_AND_ORGANIZATION_ASSIGNMENT ( #90, #105, ( #150 ) ) ;
#37 = AXIS2_PLACEMENT_3D ( 'NONE', #22, #142, #115 ) ;
#38 = VECTOR ( 'NONE', #48, 1000.000000000000000 ) ;
#39 = AXIS2_PLACEMENT_3D ( 'NONE', #169, #93, #104 ) ;
#40 = LINE ( 'NONE', #80, #38 ) ;
#41 = LOCAL_TIME ( 14, 30, 1.000000000000000000, #16 ) ;
#42 = AXIS2_PLACEMENT_3D ( 'NONE', #129, #167, #46 ) ;
#43 = CARTESIAN_POINT ( 'NONE',  ( 15.00000000000000000, 1.836970198721029600E-015, 0.0000000000000000000 ) ) ;
#44 = APPROVAL_PERSON_ORGANIZATION ( #87, #71, #66 ) ;
#45 = ORIENTED_EDGE ( 'NONE', *, *, #28, .T. ) ;
#46 = DIRECTION ( 'NONE',  ( 1.000000000000000000, 0.0000000000000000000, 0.0000000000000000000 ) ) ;
#47 = PRODUCT_DEFINITION ( 'UNKNOWN', '', #150, #106 ) ;
#48 = DIRECTION ( 'NONE',  ( -0.0000000000000000000, -0.0000000000000000000, -1.000000000000000000 ) ) ;
#49 = DIRECTION ( 'NONE',  ( 1.000000000000000000, 0.0000000000000000000, 0.0000000000000000000 ) ) ;
#50 = PERSON_AND_ORGANIZATION ( #63, #138 ) ;
#51 = PERSON_AND_ORGANIZATION ( #63, #138 ) ;
#52 = EDGE_LOOP ( 'NONE', ( #82, #3, #146, #112 ) ) ;
#53 = CC_DESIGN_DATE_AND_TIME_ASSIGNMENT ( #120, #147, ( #89 ) ) ;
#54 = DIRECTION ( 'NONE',  ( -0.0000000000000000000, -0.0000000000000000000, -1.000000000000000000 ) ) ;
#55 = DIRECTION ( 'NONE',  ( 0.0000000000000000000, 0.0000000000000000000, 1.000000000000000000 ) ) ;
#56 = CC_DESIGN_DATE_AND_TIME_ASSIGNMENT ( #29, #121, ( #47 ) ) ;
#57 = APPROVAL_DATE_TIME ( #151, #71 ) ;
#58 = ORIENTED_EDGE ( 'NONE', *, *, #109, .F. ) ;
#59 = APPROVAL_STATUS ( 'not_yet_approved' ) ;
#60 = PRODUCT ( 'Web Model 65876', 'Web Model 65876', '', ( #132 ) ) ;
#61 = CARTESIAN_POINT ( 'NONE',  ( 0.0000000000000000000, 0.0000000000000000000, 0.0000000000000000000 ) ) ;
#62 = APPLICATION_PROTOCOL_DEFINITION ( 'international standard', 'config_control_design', 1994, #145 ) ;
#63 = PERSON ( 'UNSPECIFIED', 'UNSPECIFIED', 'UNSPECIFIED', ('UNSPECIFIED'), ('UNSPECIFIED'), ('UNSPECIFIED') ) ;
#64 = EDGE_CURVE ( 'NONE', #175, #160, #40, .T. ) ;
#65 = COORDINATED_UNIVERSAL_TIME_OFFSET ( 5, 0, .BEHIND. ) ;
#66 = APPROVAL_ROLE ( '' ) ;
#67 = VECTOR ( 'NONE', #126, 1000.000000000000000 ) ;
#68 = LOCAL_TIME ( 14, 30, 1.000000000000000000, #65 ) ;
#69 = CARTESIAN_POINT ( 'NONE',  ( 15.00000000000000000, 1.836970198721029600E-015, 4.000000000000000000 ) ) ;
#70 = AXIS2_PLACEMENT_3D ( 'NONE', #61, #5, #144 ) ;
#71 = APPROVAL ( #98, 'UNSPECIFIED' ) ;
#72 = ADVANCED_FACE ( 'NONE', ( #74 ), #84, .T. ) ;
#73 = CALENDAR_DATE ( 2017, 31, 1 ) ;
#74 = FACE_OUTER_BOUND ( 'NONE', #88, .T. ) ;
#75 = APPROVAL_STATUS ( 'not_yet_approved' ) ;
#76 = APPROVAL_PERSON_ORGANIZATION ( #171, #131, #81 ) ;
#77 = ORIENTED_EDGE ( 'NONE', *, *, #109, .T. ) ;
#78 =( NAMED_UNIT ( * ) PLANE_ANGLE_UNIT ( ) SI_UNIT ( $, .RADIAN. ) );
#79 = CC_DESIGN_SECURITY_CLASSIFICATION ( #89, ( #150 ) ) ;
#80 = CARTESIAN_POINT ( 'NONE',  ( -15.00000000000000000, 0.0000000000000000000, 4.000000000000000000 ) ) ;
#81 = APPROVAL_ROLE ( '' ) ;
#82 = ORIENTED_EDGE ( 'NONE', *, *, #28, .F. ) ;
#83 = SECURITY_CLASSIFICATION_LEVEL ( 'unclassified' ) ;
#84 = CYLINDRICAL_SURFACE ( 'NONE', #37, 15.00000000000000000 ) ;
#85 = PRODUCT_RELATED_PRODUCT_CATEGORY ( 'detail', '', ( #60 ) ) ;
#86 = DIRECTION ( 'NONE',  ( 1.000000000000000000, 0.0000000000000000000, -0.0000000000000000000 ) ) ;
#87 = PERSON_AND_ORGANIZATION ( #63, #138 ) ;
#88 = EDGE_LOOP ( 'NONE', ( #123, #58, #7, #91 ) ) ;
#89 = SECURITY_CLASSIFICATION ( '', '', #83 ) ;
#90 = PERSON_AND_ORGANIZATION ( #63, #138 ) ;
#91 = ORIENTED_EDGE ( 'NONE', *, *, #128, .T. ) ;
#92 = CARTESIAN_POINT ( 'NONE',  ( 15.00000000000000000, 1.836970198721029600E-015, 4.000000000000000000 ) ) ;
#93 = DIRECTION ( 'NONE',  ( 0.0000000000000000000, 0.0000000000000000000, 1.000000000000000000 ) ) ;
#94 =( NAMED_UNIT ( * ) SI_UNIT ( $, .STERADIAN. ) SOLID_ANGLE_UNIT ( ) );
#95 = APPROVAL_ROLE ( '' ) ;
#96 = CIRCLE ( 'NONE', #39, 15.00000000000000000 ) ;
#97 = CYLINDRICAL_SURFACE ( 'NONE', #113, 15.00000000000000000 ) ;
#98 = APPROVAL_STATUS ( 'not_yet_approved' ) ;
#99 = EDGE_LOOP ( 'NONE', ( #15, #27 ) ) ;
#100 = PLANE ( 'NONE',  #125 ) ;
#101 = APPROVAL_DATE_TIME ( #154, #131 ) ;
#102 = PLANE ( 'NONE',  #166 ) ;
#103 = VERTEX_POINT ( 'NONE', #92 ) ;
#104 = DIRECTION ( 'NONE',  ( 1.000000000000000000, 0.0000000000000000000, 0.0000000000000000000 ) ) ;
#105 = PERSON_AND_ORGANIZATION_ROLE ( 'design_supplier' ) ;
#106 = DESIGN_CONTEXT ( 'detailed design', #145, 'design' ) ;
#107 = CC_DESIGN_PERSON_AND_ORGANIZATION_ASSIGNMENT ( #51, #140, ( #60 ) ) ;
#108 = EDGE_LOOP ( 'NONE', ( #77, #45 ) ) ;
#109 = EDGE_CURVE ( 'NONE', #175, #103, #137, .T. ) ;
#110 = UNCERTAINTY_MEASURE_WITH_UNIT (LENGTH_MEASURE( 1.000000000000000100E-005 ), #156, 'distance_accuracy_value', 'NONE');
#111 = CALENDAR_DATE ( 2017, 31, 1 ) ;
#112 = ORIENTED_EDGE ( 'NONE', *, *, #64, .F. ) ;
#113 = AXIS2_PLACEMENT_3D ( 'NONE', #165, #54, #18 ) ;
#114 = CC_DESIGN_PERSON_AND_ORGANIZATION_ASSIGNMENT ( #2, #134, ( #89 ) ) ;
#115 = DIRECTION ( 'NONE',  ( -1.000000000000000000, 0.0000000000000000000, 0.0000000000000000000 ) ) ;
#116 = PERSON_AND_ORGANIZATION ( #63, #138 ) ;
#117 = CIRCLE ( 'NONE', #133, 15.00000000000000000 ) ;
#118 = CARTESIAN_POINT ( 'NONE',  ( -15.00000000000000000, 0.0000000000000000000, 0.0000000000000000000 ) ) ;
#119 = APPLICATION_CONTEXT ( 'configuration controlled 3d designs of mechanical parts and assemblies' ) ;
#120 = DATE_AND_TIME ( #159, #41 ) ;
#121 = DATE_TIME_ROLE ( 'creation_date' ) ;
#122 = DATE_AND_TIME ( #73, #135 ) ;
#123 = ORIENTED_EDGE ( 'NONE', *, *, #1, .F. ) ;
#124 = LOCAL_TIME ( 14, 30, 1.000000000000000000, #157 ) ;
#125 = AXIS2_PLACEMENT_3D ( 'NONE', #163, #55, #86 ) ;
#126 = DIRECTION ( 'NONE',  ( -0.0000000000000000000, -0.0000000000000000000, -1.000000000000000000 ) ) ;
#127 = ADVANCED_FACE ( 'NONE', ( #33 ), #102, .F. ) ;
#128 = EDGE_CURVE ( 'NONE', #160, #130, #96, .T. ) ;
#129 = CARTESIAN_POINT ( 'NONE',  ( 0.0000000000000000000, 0.0000000000000000000, 4.000000000000000000 ) ) ;
#130 = VERTEX_POINT ( 'NONE', #43 ) ;
#131 = APPROVAL ( #59, 'UNSPECIFIED' ) ;
#132 = MECHANICAL_CONTEXT ( 'NONE', #119, 'mechanical' ) ;
#133 = AXIS2_PLACEMENT_3D ( 'NONE', #158, #155, #49 ) ;
#134 = PERSON_AND_ORGANIZATION_ROLE ( 'classification_officer' ) ;
#135 = LOCAL_TIME ( 14, 30, 1.000000000000000000, #148 ) ;
#136 = CC_DESIGN_APPROVAL ( #131, ( #47 ) ) ;
#137 = CIRCLE ( 'NONE', #42, 15.00000000000000000 ) ;
#138 = ORGANIZATION ( 'UNSPECIFIED', 'UNSPECIFIED', '' ) ;
#139 = CC_DESIGN_PERSON_AND_ORGANIZATION_ASSIGNMENT ( #19, #170, ( #47 ) ) ;
#140 = PERSON_AND_ORGANIZATION_ROLE ( 'design_owner' ) ;
#141 = CC_DESIGN_APPROVAL ( #71, ( #89 ) ) ;
#142 = DIRECTION ( 'NONE',  ( -0.0000000000000000000, -0.0000000000000000000, -1.000000000000000000 ) ) ;
#143 = CARTESIAN_POINT ( 'NONE',  ( -15.00000000000000000, 0.0000000000000000000, 4.000000000000000000 ) ) ;
#144 = DIRECTION ( 'NONE',  ( 1.000000000000000000, 0.0000000000000000000, 0.0000000000000000000 ) ) ;
#145 = APPLICATION_CONTEXT ( 'configuration controlled 3d designs of mechanical parts and assemblies' ) ;
#146 = ORIENTED_EDGE ( 'NONE', *, *, #32, .T. ) ;
#147 = DATE_TIME_ROLE ( 'classification_date' ) ;
#148 = COORDINATED_UNIVERSAL_TIME_OFFSET ( 5, 0, .BEHIND. ) ;
#149 = CIRCLE ( 'NONE', #70, 15.00000000000000000 ) ;
#150 = PRODUCT_DEFINITION_FORMATION_WITH_SPECIFIED_SOURCE ( 'ANY', '', #60, .NOT_KNOWN. ) ;
#151 = DATE_AND_TIME ( #12, #162 ) ;
#152 = FACE_OUTER_BOUND ( 'NONE', #108, .T. ) ;
#153 = DIRECTION ( 'NONE',  ( 0.0000000000000000000, 0.0000000000000000000, 1.000000000000000000 ) ) ;
#154 = DATE_AND_TIME ( #111, #68 ) ;
#155 = DIRECTION ( 'NONE',  ( 0.0000000000000000000, 0.0000000000000000000, 1.000000000000000000 ) ) ;
#156 =( LENGTH_UNIT ( ) NAMED_UNIT ( * ) SI_UNIT ( .MILLI., .METRE. ) );
#157 = COORDINATED_UNIVERSAL_TIME_OFFSET ( 5, 0, .BEHIND. ) ;
#158 = CARTESIAN_POINT ( 'NONE',  ( 0.0000000000000000000, 0.0000000000000000000, 4.000000000000000000 ) ) ;
#159 = CALENDAR_DATE ( 2017, 31, 1 ) ;
#160 = VERTEX_POINT ( 'NONE', #118 ) ;
#161 = ADVANCED_BREP_SHAPE_REPRESENTATION ( 'Web Model 65876', ( #9, #30 ), #174 ) ;
#162 = LOCAL_TIME ( 14, 30, 1.000000000000000000, #24 ) ;
#163 = CARTESIAN_POINT ( 'NONE',  ( 0.0000000000000000000, 0.0000000000000000000, 4.000000000000000000 ) ) ;
#164 = SHAPE_DEFINITION_REPRESENTATION ( #20, #161 ) ;
#165 = CARTESIAN_POINT ( 'NONE',  ( 0.0000000000000000000, 0.0000000000000000000, 4.000000000000000000 ) ) ;
#166 = AXIS2_PLACEMENT_3D ( 'NONE', #8, #153, #23 ) ;
#167 = DIRECTION ( 'NONE',  ( 0.0000000000000000000, 0.0000000000000000000, 1.000000000000000000 ) ) ;
#168 = FACE_OUTER_BOUND ( 'NONE', #52, .T. ) ;
#169 = CARTESIAN_POINT ( 'NONE',  ( 0.0000000000000000000, 0.0000000000000000000, 0.0000000000000000000 ) ) ;
#170 = PERSON_AND_ORGANIZATION_ROLE ( 'creator' ) ;
#171 = PERSON_AND_ORGANIZATION ( #63, #138 ) ;
#172 = CLOSED_SHELL ( 'NONE', ( #31, #72, #4, #127 ) ) ;
#173 = LINE ( 'NONE', #69, #67 ) ;
#174 =( GEOMETRIC_REPRESENTATION_CONTEXT ( 3 ) GLOBAL_UNCERTAINTY_ASSIGNED_CONTEXT ( ( #110 ) ) GLOBAL_UNIT_ASSIGNED_CONTEXT ( ( #156, #78, #94 ) ) REPRESENTATION_CONTEXT ( 'NONE', 'WORKASPACE' ) );
#175 = VERTEX_POINT ( 'NONE', #143 ) ;
ENDSEC;
END-ISO-10303-21;
