ISO-10303-21;
HEADER;
FILE_DESCRIPTION (( 'STEP AP203' ),
    '1' );
FILE_NAME ('Web Model 48917_48917.step',
    '2017-06-06T17:31:28',
    ( '' ),
    ( '' ),
    'SwSTEP 2.0',
    'SolidWorks 2016',
    '' );
FILE_SCHEMA (( 'CONFIG_CONTROL_DESIGN' ));
ENDSEC;

DATA;
#1 = CARTESIAN_POINT ( 'NONE',  ( 0.0000000000000000000, 35.35499999999999700, 0.0000000000000000000 ) ) ;
#2 = LOCAL_TIME ( 13, 31, 28.00000000000000000, #77 ) ;
#3 = DIRECTION ( 'NONE',  ( 1.000000000000000000, 0.0000000000000000000, -0.0000000000000000000 ) ) ;
#4 = PRODUCT_DEFINITION_FORMATION_WITH_SPECIFIED_SOURCE ( 'ANY', '', #57, .NOT_KNOWN. ) ;
#5 = CARTESIAN_POINT ( 'NONE',  ( 50.00000000000000000, 35.35499999999999700, 0.0000000000000000000 ) ) ;
#6 = PERSON ( 'UNSPECIFIED', 'UNSPECIFIED', 'UNSPECIFIED', ('UNSPECIFIED'), ('UNSPECIFIED'), ('UNSPECIFIED') ) ;
#7 = EDGE_CURVE ( 'NONE', #141, #72, #131, .T. ) ;
#8 = CARTESIAN_POINT ( 'NONE',  ( -3.061616997868383000E-015, -34.35499999999999700, 0.9999999999999963400 ) ) ;
#9 = CC_DESIGN_APPROVAL ( #36, ( #70 ) ) ;
#10 = APPLICATION_PROTOCOL_DEFINITION ( 'international standard', 'config_control_design', 1994, #60 ) ;
#11 = MECHANICAL_CONTEXT ( 'NONE', #60, 'mechanical' ) ;
#12 = CARTESIAN_POINT ( 'NONE',  ( -50.00000000000000000, -34.35499999999998300, 0.9999999999999968900 ) ) ;
#13 =( BOUNDED_SURFACE ( )  B_SPLINE_SURFACE ( 3, 1, ( 
 ( #103, #90 ),
 ( #50, #16 ),
 ( #29, #83 ),
 ( #42, #146 ) ),
 .UNSPECIFIED., .F., .F., .T. ) 
 B_SPLINE_SURFACE_WITH_KNOTS ( ( 4, 4 ),
 ( 2, 2 ),
 ( 0.0000000000000000000, 1.000000000000000000 ),
 ( 0.0000000000000000000, 1.000000000000000000 ),
 .UNSPECIFIED. ) 
 GEOMETRIC_REPRESENTATION_ITEM ( )  RATIONAL_B_SPLINE_SURFACE ( (
 ( 1.000000000000000000, 1.000000000000000000),
 ( 0.3333333333333333700, 0.3333333333333333700),
 ( 0.3333333333333333700, 0.3333333333333333700),
 ( 1.000000000000000000, 1.000000000000000000) ) ) 
 REPRESENTATION_ITEM ( '' )  SURFACE ( )  );
#14 = DIRECTION ( 'NONE',  ( 0.0000000000000000000, 0.0000000000000000000, 1.000000000000000000 ) ) ;
#15 = CARTESIAN_POINT ( 'NONE',  ( -3.061616997868383000E-015, -35.35499999999999700, 0.0000000000000000000 ) ) ;
#16 = CARTESIAN_POINT ( 'NONE',  ( 50.00000000000000000, -35.35499999999999700, 4.228388472693466500E-015 ) ) ;
#17 = ORIENTED_EDGE ( 'NONE', *, *, #7, .T. ) ;
#18 = COORDINATED_UNIVERSAL_TIME_OFFSET ( 5, 0, .BEHIND. ) ;
#19 = EDGE_CURVE ( 'NONE', #173, #72, #45, .T. ) ;
#20 = APPROVAL_DATE_TIME ( #164, #47 ) ;
#21 = ORIENTED_EDGE ( 'NONE', *, *, #19, .F. ) ;
#22 = SHAPE_DEFINITION_REPRESENTATION ( #107, #76 ) ;
#23 = EDGE_CURVE ( 'NONE', #156, #141, #109, .T. ) ;
#24 = CARTESIAN_POINT ( 'NONE',  ( -3.061616997868383000E-015, -34.35499999999999700, 0.9999999999999963400 ) ) ;
#25 = ADVANCED_FACE ( 'NONE', ( #123 ), #68, .F. ) ;
#26 = DIRECTION ( 'NONE',  ( 0.0000000000000000000, 0.0000000000000000000, 1.000000000000000000 ) ) ;
#27 = CARTESIAN_POINT ( 'NONE',  ( 0.0000000000000000000, 0.0000000000000000000, 0.0000000000000000000 ) ) ;
#28 = ORIENTED_EDGE ( 'NONE', *, *, #7, .F. ) ;
#29 = CARTESIAN_POINT ( 'NONE',  ( 50.00000000000000000, 36.35500000000001100, 0.9999999999999992200 ) ) ;
#30 = CARTESIAN_POINT ( 'NONE',  ( -50.00000000000000000, -35.35499999999998300, 2.764715539838035900E-015 ) ) ;
#31 = PRODUCT_RELATED_PRODUCT_CATEGORY ( 'detail', '', ( #57 ) ) ;
#32 =( BOUNDED_CURVE ( )  B_SPLINE_CURVE ( 3, ( #160, #121, #5, #119 ),
 .UNSPECIFIED., .F., .T. ) 
 B_SPLINE_CURVE_WITH_KNOTS ( ( 4, 4 ),
 ( 3.141592653589793100, 6.283185307179586200 ),
 .UNSPECIFIED. ) 
 CURVE ( )  GEOMETRIC_REPRESENTATION_ITEM ( )  RATIONAL_B_SPLINE_CURVE ( ( 1.000000000000000000, 0.3333333333333333700, 0.3333333333333333700, 1.000000000000000000 ) ) 
 REPRESENTATION_ITEM ( '' )  );
#33 = ORIENTED_EDGE ( 'NONE', *, *, #130, .T. ) ;
#34 = PERSON_AND_ORGANIZATION ( #6, #43 ) ;
#35 = CARTESIAN_POINT ( 'NONE',  ( 0.0000000000000000000, 0.0000000000000000000, 0.0000000000000000000 ) ) ;
#36 = APPROVAL ( #40, 'UNSPECIFIED' ) ;
#37 = APPROVAL_ROLE ( '' ) ;
#38 = CARTESIAN_POINT ( 'NONE',  ( 0.0000000000000000000, 1.000000000000004200, 0.9999999999999963400 ) ) ;
#39 = ADVANCED_FACE ( 'NONE', ( #176 ), #13, .F. ) ;
#40 = APPROVAL_STATUS ( 'not_yet_approved' ) ;
#41 = APPROVAL_DATE_TIME ( #135, #36 ) ;
#42 = CARTESIAN_POINT ( 'NONE',  ( 0.0000000000000000000, 36.35500000000000400, 0.9999999999999991100 ) ) ;
#43 = ORGANIZATION ( 'UNSPECIFIED', 'UNSPECIFIED', '' ) ;
#44 = VECTOR ( 'NONE', #91, 1000.000000000000100 ) ;
#45 = LINE ( 'NONE', #102, #69 ) ;
#46 = CALENDAR_DATE ( 2017, 6, 6 ) ;
#47 = APPROVAL ( #129, 'UNSPECIFIED' ) ;
#48 = PERSON_AND_ORGANIZATION_ROLE ( 'design_supplier' ) ;
#49 =( BOUNDED_CURVE ( )  B_SPLINE_CURVE ( 3, ( #163, #61, #117, #87 ),
 .UNSPECIFIED., .F., .F. ) 
 B_SPLINE_CURVE_WITH_KNOTS ( ( 4, 4 ),
 ( 0.0000000000000000000, 3.141592653589793100 ),
 .UNSPECIFIED. ) 
 CURVE ( )  GEOMETRIC_REPRESENTATION_ITEM ( )  RATIONAL_B_SPLINE_CURVE ( ( 1.000000000000000000, 0.3333333333333333700, 0.3333333333333333700, 1.000000000000000000 ) ) 
 REPRESENTATION_ITEM ( '' )  );
#50 = CARTESIAN_POINT ( 'NONE',  ( 50.00000000000000000, -34.35499999999999700, 0.9999999999999992200 ) ) ;
#51 = DATE_AND_TIME ( #122, #108 ) ;
#52 = PLANE ( 'NONE',  #125 ) ;
#53 = CARTESIAN_POINT ( 'NONE',  ( 50.00000000000000000, 36.35499999999999000, 0.9999999999999963400 ) ) ;
#54 = CARTESIAN_POINT ( 'NONE',  ( -3.061616997868383000E-015, -35.35499999999999000, 2.818925648462311500E-015 ) ) ;
#55 = CARTESIAN_POINT ( 'NONE',  ( 0.0000000000000000000, 35.35499999999999700, 0.0000000000000000000 ) ) ;
#56 = ORIENTED_EDGE ( 'NONE', *, *, #23, .F. ) ;
#57 = PRODUCT ( 'Web Model 48917_48917', 'Web Model 48917_48917', '', ( #11 ) ) ;
#58 = DESIGN_CONTEXT ( 'detailed design', #62, 'design' ) ;
#59 = APPROVAL_PERSON_ORGANIZATION ( #179, #47, #85 ) ;
#60 = APPLICATION_CONTEXT ( 'configuration controlled 3d designs of mechanical parts and assemblies' ) ;
#61 = CARTESIAN_POINT ( 'NONE',  ( -50.00000000000000000, 36.35499999999999000, 0.9999999999999963400 ) ) ;
#62 = APPLICATION_CONTEXT ( 'configuration controlled 3d designs of mechanical parts and assemblies' ) ;
#63 = EDGE_LOOP ( 'NONE', ( #113, #174, #33, #56 ) ) ;
#64 =( BOUNDED_SURFACE ( )  B_SPLINE_SURFACE ( 3, 1, ( 
 ( #134, #136 ),
 ( #105, #149 ),
 ( #12, #30 ),
 ( #169, #54 ) ),
 .UNSPECIFIED., .F., .F., .F. ) 
 B_SPLINE_SURFACE_WITH_KNOTS ( ( 4, 4 ),
 ( 2, 2 ),
 ( 0.0000000000000000000, 1.000000000000000000 ),
 ( 0.0000000000000000000, 1.000000000000000000 ),
 .UNSPECIFIED. ) 
 GEOMETRIC_REPRESENTATION_ITEM ( )  RATIONAL_B_SPLINE_SURFACE ( (
 ( 1.000000000000000000, 1.000000000000000000),
 ( 0.3333333333333333700, 0.3333333333333333700),
 ( 0.3333333333333333700, 0.3333333333333333700),
 ( 1.000000000000000000, 1.000000000000000000) ) ) 
 REPRESENTATION_ITEM ( '' )  SURFACE ( )  );
#65 = PERSON_AND_ORGANIZATION ( #6, #43 ) ;
#66 = CC_DESIGN_PERSON_AND_ORGANIZATION_ASSIGNMENT ( #34, #155, ( #70 ) ) ;
#67 = SECURITY_CLASSIFICATION_LEVEL ( 'unclassified' ) ;
#68 = PLANE ( 'NONE',  #106 ) ;
#69 = VECTOR ( 'NONE', #168, 1000.000000000000100 ) ;
#70 = SECURITY_CLASSIFICATION ( '', '', #67 ) ;
#71 = ORIENTED_EDGE ( 'NONE', *, *, #180, .F. ) ;
#72 = VERTEX_POINT ( 'NONE', #120 ) ;
#73 =( GEOMETRIC_REPRESENTATION_CONTEXT ( 3 ) GLOBAL_UNCERTAINTY_ASSIGNED_CONTEXT ( ( #110 ) ) GLOBAL_UNIT_ASSIGNED_CONTEXT ( ( #99, #178, #154 ) ) REPRESENTATION_CONTEXT ( 'NONE', 'WORKASPACE' ) );
#74 = CARTESIAN_POINT ( 'NONE',  ( 50.00000000000000000, -34.35500000000000400, 0.9999999999999963400 ) ) ;
#75 = CALENDAR_DATE ( 2017, 6, 6 ) ;
#76 = ADVANCED_BREP_SHAPE_REPRESENTATION ( 'Web Model 48917_48917', ( #166, #86 ), #73 ) ;
#77 = COORDINATED_UNIVERSAL_TIME_OFFSET ( 5, 0, .BEHIND. ) ;
#78 = FACE_OUTER_BOUND ( 'NONE', #98, .T. ) ;
#79 = CARTESIAN_POINT ( 'NONE',  ( 0.0000000000000000000, 36.35499999999999700, 0.9999999999999963400 ) ) ;
#80 = CARTESIAN_POINT ( 'NONE',  ( 0.0000000000000000000, 36.35499999999999700, 0.9999999999999963400 ) ) ;
#81 = COORDINATED_UNIVERSAL_TIME_OFFSET ( 5, 0, .BEHIND. ) ;
#82 = CALENDAR_DATE ( 2017, 6, 6 ) ;
#83 = CARTESIAN_POINT ( 'NONE',  ( 50.00000000000000000, 35.35499999999999700, 4.228388472693466500E-015 ) ) ;
#84 = ORIENTED_EDGE ( 'NONE', *, *, #157, .T. ) ;
#85 = APPROVAL_ROLE ( '' ) ;
#86 = AXIS2_PLACEMENT_3D ( 'NONE', #35, #148, #159 ) ;
#87 = CARTESIAN_POINT ( 'NONE',  ( -3.061616997868383000E-015, -34.35499999999999700, 0.9999999999999963400 ) ) ;
#88 = APPROVAL ( #114, 'UNSPECIFIED' ) ;
#89 = ADVANCED_FACE ( 'NONE', ( #101 ), #64, .F. ) ;
#90 = CARTESIAN_POINT ( 'NONE',  ( -3.061616997868383000E-015, -35.35499999999999000, 4.119968255444916800E-015 ) ) ;
#91 = DIRECTION ( 'NONE',  ( -0.0000000000000000000, -0.7071067811865503500, -0.7071067811865446900 ) ) ;
#92 = APPROVAL_PERSON_ORGANIZATION ( #143, #36, #37 ) ;
#93 = PERSON_AND_ORGANIZATION ( #6, #43 ) ;
#94 = ORIENTED_EDGE ( 'NONE', *, *, #180, .T. ) ;
#95 =( BOUNDED_CURVE ( )  B_SPLINE_CURVE ( 3, ( #24, #74, #53, #80 ),
 .UNSPECIFIED., .F., .F. ) 
 B_SPLINE_CURVE_WITH_KNOTS ( ( 4, 4 ),
 ( 3.141592653589793100, 6.283185307179586200 ),
 .UNSPECIFIED. ) 
 CURVE ( )  GEOMETRIC_REPRESENTATION_ITEM ( )  RATIONAL_B_SPLINE_CURVE ( ( 1.000000000000000000, 0.3333333333333333700, 0.3333333333333333700, 1.000000000000000000 ) ) 
 REPRESENTATION_ITEM ( '' )  );
#96 = CC_DESIGN_PERSON_AND_ORGANIZATION_ASSIGNMENT ( #93, #162, ( #158 ) ) ;
#97 = PERSON_AND_ORGANIZATION ( #6, #43 ) ;
#98 = EDGE_LOOP ( 'NONE', ( #94, #84 ) ) ;
#99 =( LENGTH_UNIT ( ) NAMED_UNIT ( * ) SI_UNIT ( .MILLI., .METRE. ) );
#100 = APPROVAL_PERSON_ORGANIZATION ( #153, #88, #128 ) ;
#101 = FACE_OUTER_BOUND ( 'NONE', #127, .T. ) ;
#102 = CARTESIAN_POINT ( 'NONE',  ( -3.061616997868383000E-015, -34.35499999999999700, 0.9999999999999963400 ) ) ;
#103 = CARTESIAN_POINT ( 'NONE',  ( -3.061616997868383000E-015, -34.35499999999999000, 0.9999999999999991100 ) ) ;
#104 = CALENDAR_DATE ( 2017, 6, 6 ) ;
#105 = CARTESIAN_POINT ( 'NONE',  ( -50.00000000000000000, 36.35500000000001100, 0.9999999999999968900 ) ) ;
#106 = AXIS2_PLACEMENT_3D ( 'NONE', #27, #26, #3 ) ;
#107 = PRODUCT_DEFINITION_SHAPE ( 'NONE', 'NONE',  #158 ) ;
#108 = LOCAL_TIME ( 13, 31, 28.00000000000000000, #81 ) ;
#109 = LINE ( 'NONE', #181, #44 ) ;
#110 = UNCERTAINTY_MEASURE_WITH_UNIT (LENGTH_MEASURE( 1.000000000000000100E-005 ), #99, 'distance_accuracy_value', 'NONE');
#111 = LOCAL_TIME ( 13, 31, 28.00000000000000000, #167 ) ;
#112 = DATE_TIME_ROLE ( 'classification_date' ) ;
#113 = ORIENTED_EDGE ( 'NONE', *, *, #157, .F. ) ;
#114 = APPROVAL_STATUS ( 'not_yet_approved' ) ;
#115 = LOCAL_TIME ( 13, 31, 28.00000000000000000, #18 ) ;
#116 = APPLICATION_PROTOCOL_DEFINITION ( 'international standard', 'config_control_design', 1994, #62 ) ;
#117 = CARTESIAN_POINT ( 'NONE',  ( -50.00000000000000000, -34.35499999999999000, 0.9999999999999963400 ) ) ;
#118 = CC_DESIGN_APPROVAL ( #88, ( #4 ) ) ;
#119 = CARTESIAN_POINT ( 'NONE',  ( 0.0000000000000000000, 35.35499999999999700, 0.0000000000000000000 ) ) ;
#120 = CARTESIAN_POINT ( 'NONE',  ( -3.061616997868383000E-015, -35.35499999999999700, 0.0000000000000000000 ) ) ;
#121 = CARTESIAN_POINT ( 'NONE',  ( 50.00000000000000000, -35.35499999999999700, 0.0000000000000000000 ) ) ;
#122 = CALENDAR_DATE ( 2017, 6, 6 ) ;
#123 = FACE_OUTER_BOUND ( 'NONE', #172, .T. ) ;
#124 = ORIENTED_EDGE ( 'NONE', *, *, #23, .T. ) ;
#125 = AXIS2_PLACEMENT_3D ( 'NONE', #38, #14, #151 ) ;
#126 = CC_DESIGN_DATE_AND_TIME_ASSIGNMENT ( #133, #132, ( #158 ) ) ;
#127 = EDGE_LOOP ( 'NONE', ( #21, #71, #124, #17 ) ) ;
#128 = APPROVAL_ROLE ( '' ) ;
#129 = APPROVAL_STATUS ( 'not_yet_approved' ) ;
#130 = EDGE_CURVE ( 'NONE', #72, #141, #32, .T. ) ;
#131 =( BOUNDED_CURVE ( )  B_SPLINE_CURVE ( 3, ( #1, #161, #165, #15 ),
 .UNSPECIFIED., .F., .F. ) 
 B_SPLINE_CURVE_WITH_KNOTS ( ( 4, 4 ),
 ( 0.0000000000000000000, 3.141592653589793100 ),
 .UNSPECIFIED. ) 
 CURVE ( )  GEOMETRIC_REPRESENTATION_ITEM ( )  RATIONAL_B_SPLINE_CURVE ( ( 1.000000000000000000, 0.3333333333333333700, 0.3333333333333333700, 1.000000000000000000 ) ) 
 REPRESENTATION_ITEM ( '' )  );
#132 = DATE_TIME_ROLE ( 'creation_date' ) ;
#133 = DATE_AND_TIME ( #82, #2 ) ;
#134 = CARTESIAN_POINT ( 'NONE',  ( 0.0000000000000000000, 36.35500000000000400, 0.9999999999999967800 ) ) ;
#135 = DATE_AND_TIME ( #46, #177 ) ;
#136 = CARTESIAN_POINT ( 'NONE',  ( 0.0000000000000000000, 35.35500000000000400, 2.818925648462311500E-015 ) ) ;
#137 = CC_DESIGN_PERSON_AND_ORGANIZATION_ASSIGNMENT ( #65, #142, ( #4 ) ) ;
#138 = APPROVAL_DATE_TIME ( #51, #88 ) ;
#139 = COORDINATED_UNIVERSAL_TIME_OFFSET ( 5, 0, .BEHIND. ) ;
#140 = CLOSED_SHELL ( 'NONE', ( #39, #89, #147, #25 ) ) ;
#141 = VERTEX_POINT ( 'NONE', #55 ) ;
#142 = PERSON_AND_ORGANIZATION_ROLE ( 'creator' ) ;
#143 = PERSON_AND_ORGANIZATION ( #6, #43 ) ;
#144 = CC_DESIGN_APPROVAL ( #47, ( #158 ) ) ;
#145 = PERSON_AND_ORGANIZATION_ROLE ( 'design_owner' ) ;
#146 = CARTESIAN_POINT ( 'NONE',  ( 0.0000000000000000000, 35.35500000000000400, 4.119968255444916800E-015 ) ) ;
#147 = ADVANCED_FACE ( 'NONE', ( #78 ), #52, .T. ) ;
#148 = DIRECTION ( 'NONE',  ( 0.0000000000000000000, 0.0000000000000000000, 1.000000000000000000 ) ) ;
#149 = CARTESIAN_POINT ( 'NONE',  ( -50.00000000000000000, 35.35499999999999700, 2.764715539838035900E-015 ) ) ;
#150 = CC_DESIGN_PERSON_AND_ORGANIZATION_ASSIGNMENT ( #97, #48, ( #4 ) ) ;
#151 = DIRECTION ( 'NONE',  ( 1.000000000000000000, 0.0000000000000000000, -0.0000000000000000000 ) ) ;
#152 = ORIENTED_EDGE ( 'NONE', *, *, #130, .F. ) ;
#153 = PERSON_AND_ORGANIZATION ( #6, #43 ) ;
#154 =( NAMED_UNIT ( * ) SI_UNIT ( $, .STERADIAN. ) SOLID_ANGLE_UNIT ( ) );
#155 = PERSON_AND_ORGANIZATION_ROLE ( 'classification_officer' ) ;
#156 = VERTEX_POINT ( 'NONE', #79 ) ;
#157 = EDGE_CURVE ( 'NONE', #173, #156, #95, .T. ) ;
#158 = PRODUCT_DEFINITION ( 'UNKNOWN', '', #4, #58 ) ;
#159 = DIRECTION ( 'NONE',  ( 1.000000000000000000, 0.0000000000000000000, 0.0000000000000000000 ) ) ;
#160 = CARTESIAN_POINT ( 'NONE',  ( -3.061616997868383000E-015, -35.35499999999999700, 0.0000000000000000000 ) ) ;
#161 = CARTESIAN_POINT ( 'NONE',  ( -50.00000000000000000, 35.35499999999999700, 0.0000000000000000000 ) ) ;
#162 = PERSON_AND_ORGANIZATION_ROLE ( 'creator' ) ;
#163 = CARTESIAN_POINT ( 'NONE',  ( 0.0000000000000000000, 36.35499999999999700, 0.9999999999999963400 ) ) ;
#164 = DATE_AND_TIME ( #104, #111 ) ;
#165 = CARTESIAN_POINT ( 'NONE',  ( -50.00000000000000000, -35.35499999999999000, 0.0000000000000000000 ) ) ;
#166 = MANIFOLD_SOLID_BREP ( 'Boss-Extrude1', #140 ) ;
#167 = COORDINATED_UNIVERSAL_TIME_OFFSET ( 5, 0, .BEHIND. ) ;
#168 = DIRECTION ( 'NONE',  ( -0.0000000000000000000, -0.7071067811865503500, -0.7071067811865446900 ) ) ;
#169 = CARTESIAN_POINT ( 'NONE',  ( -3.061616997868383000E-015, -34.35499999999999000, 0.9999999999999967800 ) ) ;
#170 = CC_DESIGN_PERSON_AND_ORGANIZATION_ASSIGNMENT ( #183, #145, ( #57 ) ) ;
#171 = CC_DESIGN_SECURITY_CLASSIFICATION ( #70, ( #4 ) ) ;
#172 = EDGE_LOOP ( 'NONE', ( #28, #152 ) ) ;
#173 = VERTEX_POINT ( 'NONE', #8 ) ;
#174 = ORIENTED_EDGE ( 'NONE', *, *, #19, .T. ) ;
#175 = CC_DESIGN_DATE_AND_TIME_ASSIGNMENT ( #182, #112, ( #70 ) ) ;
#176 = FACE_OUTER_BOUND ( 'NONE', #63, .T. ) ;
#177 = LOCAL_TIME ( 13, 31, 28.00000000000000000, #139 ) ;
#178 =( NAMED_UNIT ( * ) PLANE_ANGLE_UNIT ( ) SI_UNIT ( $, .RADIAN. ) );
#179 = PERSON_AND_ORGANIZATION ( #6, #43 ) ;
#180 = EDGE_CURVE ( 'NONE', #156, #173, #49, .T. ) ;
#181 = CARTESIAN_POINT ( 'NONE',  ( 0.0000000000000000000, 36.35499999999999700, 0.9999999999999963400 ) ) ;
#182 = DATE_AND_TIME ( #75, #115 ) ;
#183 = PERSON_AND_ORGANIZATION ( #6, #43 ) ;
ENDSEC;
END-ISO-10303-21;
