ISO-10303-21;
HEADER;
FILE_DESCRIPTION (( 'STEP AP203' ),
    '1' );
FILE_NAME ('Web Model 38911_38992.step',
    '2018-10-18T19:48:07',
    ( '' ),
    ( '' ),
    'SwSTEP 2.0',
    'SolidWorks 2016',
    '' );
FILE_SCHEMA (( 'CONFIG_CONTROL_DESIGN' ));
ENDSEC;

DATA;
#1 = APPROVAL_ROLE ( '' ) ;
#2 = MANIFOLD_SOLID_BREP ( 'Boss-Extrude1', #85 ) ;
#3 = AXIS2_PLACEMENT_3D ( 'NONE', #143, #77, #13 ) ;
#4 = APPLICATION_PROTOCOL_DEFINITION ( 'international standard', 'config_control_design', 1994, #116 ) ;
#5 = APPROVAL_DATE_TIME ( #105, #65 ) ;
#6 = AXIS2_PLACEMENT_3D ( 'NONE', #168, #84, #75 ) ;
#7 = VERTEX_POINT ( 'NONE', #53 ) ;
#8 = ADVANCED_FACE ( 'NONE', ( #18 ), #136, .T. ) ;
#9 = CC_DESIGN_APPROVAL ( #65, ( #173 ) ) ;
#10 = ADVANCED_FACE ( 'NONE', ( #99 ), #115, .T. ) ;
#11 = LOCAL_TIME ( 15, 48, 7.000000000000000000, #101 ) ;
#12 = PRODUCT_DEFINITION_SHAPE ( 'NONE', 'NONE',  #173 ) ;
#13 = DIRECTION ( 'NONE',  ( -1.000000000000000000, 0.0000000000000000000, 0.0000000000000000000 ) ) ;
#14 = APPROVAL ( #164, 'UNSPECIFIED' ) ;
#15 = DIRECTION ( 'NONE',  ( 1.000000000000000000, 0.0000000000000000000, 0.0000000000000000000 ) ) ;
#16 = ORIENTED_EDGE ( 'NONE', *, *, #134, .T. ) ;
#17 = AXIS2_PLACEMENT_3D ( 'NONE', #142, #126, #15 ) ;
#18 = FACE_OUTER_BOUND ( 'NONE', #43, .T. ) ;
#19 = LOCAL_TIME ( 15, 48, 7.000000000000000000, #83 ) ;
#20 = VECTOR ( 'NONE', #96, 1000.000000000000000 ) ;
#21 = CC_DESIGN_PERSON_AND_ORGANIZATION_ASSIGNMENT ( #33, #93, ( #44 ) ) ;
#22 = APPLICATION_PROTOCOL_DEFINITION ( 'international standard', 'config_control_design', 1994, #72 ) ;
#23 = COORDINATED_UNIVERSAL_TIME_OFFSET ( 5, 0, .BEHIND. ) ;
#24 = PERSON_AND_ORGANIZATION_ROLE ( 'design_supplier' ) ;
#25 = PERSON_AND_ORGANIZATION ( #151, #69 ) ;
#26 = ORIENTED_EDGE ( 'NONE', *, *, #80, .T. ) ;
#27 = AXIS2_PLACEMENT_3D ( 'NONE', #28, #42, #156 ) ;
#28 = CARTESIAN_POINT ( 'NONE',  ( 0.0000000000000000000, 0.0000000000000000000, 3.174999999999999800 ) ) ;
#29 = PRODUCT ( 'Web Model 38911_38992', 'Web Model 38911_38992', '', ( #114 ) ) ;
#30 = DATE_AND_TIME ( #40, #19 ) ;
#31 = CC_DESIGN_PERSON_AND_ORGANIZATION_ASSIGNMENT ( #91, #24, ( #44 ) ) ;
#32 = CARTESIAN_POINT ( 'NONE',  ( -9.550000000000000700, 0.0000000000000000000, 3.174999999999999800 ) ) ;
#33 = PERSON_AND_ORGANIZATION ( #151, #69 ) ;
#34 = CC_DESIGN_PERSON_AND_ORGANIZATION_ASSIGNMENT ( #145, #37, ( #173 ) ) ;
#35 = DIRECTION ( 'NONE',  ( 1.000000000000000000, 0.0000000000000000000, 0.0000000000000000000 ) ) ;
#36 = DATE_AND_TIME ( #82, #67 ) ;
#37 = PERSON_AND_ORGANIZATION_ROLE ( 'creator' ) ;
#38 = DATE_AND_TIME ( #155, #89 ) ;
#39 = DESIGN_CONTEXT ( 'detailed design', #72, 'design' ) ;
#40 = CALENDAR_DATE ( 2018, 18, 10 ) ;
#41 = APPROVAL_PERSON_ORGANIZATION ( #47, #106, #1 ) ;
#42 = DIRECTION ( 'NONE',  ( 0.0000000000000000000, 0.0000000000000000000, 1.000000000000000000 ) ) ;
#43 = EDGE_LOOP ( 'NONE', ( #78, #16, #139, #107 ) ) ;
#44 = PRODUCT_DEFINITION_FORMATION_WITH_SPECIFIED_SOURCE ( 'ANY', '', #29, .NOT_KNOWN. ) ;
#45 = CALENDAR_DATE ( 2018, 18, 10 ) ;
#46 = COORDINATED_UNIVERSAL_TIME_OFFSET ( 5, 0, .BEHIND. ) ;
#47 = PERSON_AND_ORGANIZATION ( #151, #69 ) ;
#48 = PERSON_AND_ORGANIZATION_ROLE ( 'classification_officer' ) ;
#49 = LINE ( 'NONE', #112, #144 ) ;
#50 =( LENGTH_UNIT ( ) NAMED_UNIT ( * ) SI_UNIT ( .MILLI., .METRE. ) );
#51 = EDGE_CURVE ( 'NONE', #66, #7, #90, .T. ) ;
#52 = ORIENTED_EDGE ( 'NONE', *, *, #51, .T. ) ;
#53 = CARTESIAN_POINT ( 'NONE',  ( 9.550000000000000700, 1.169537693185722600E-015, -3.174999999999999800 ) ) ;
#54 = ORIENTED_EDGE ( 'NONE', *, *, #124, .T. ) ;
#55 = FACE_OUTER_BOUND ( 'NONE', #149, .T. ) ;
#56 = AXIS2_PLACEMENT_3D ( 'NONE', #172, #129, #160 ) ;
#57 = EDGE_CURVE ( 'NONE', #7, #66, #162, .T. ) ;
#58 =( NAMED_UNIT ( * ) SI_UNIT ( $, .STERADIAN. ) SOLID_ANGLE_UNIT ( ) );
#59 = ORIENTED_EDGE ( 'NONE', *, *, #87, .T. ) ;
#60 = ORIENTED_EDGE ( 'NONE', *, *, #80, .F. ) ;
#61 = COORDINATED_UNIVERSAL_TIME_OFFSET ( 5, 0, .BEHIND. ) ;
#62 = ADVANCED_FACE ( 'NONE', ( #166 ), #110, .T. ) ;
#63 = LINE ( 'NONE', #125, #20 ) ;
#64 = ADVANCED_FACE ( 'NONE', ( #55 ), #128, .F. ) ;
#65 = APPROVAL ( #94, 'UNSPECIFIED' ) ;
#66 = VERTEX_POINT ( 'NONE', #76 ) ;
#67 = LOCAL_TIME ( 15, 48, 7.000000000000000000, #46 ) ;
#68 = AXIS2_PLACEMENT_3D ( 'NONE', #100, #88, #35 ) ;
#69 = ORGANIZATION ( 'UNSPECIFIED', 'UNSPECIFIED', '' ) ;
#70 = DIRECTION ( 'NONE',  ( -0.0000000000000000000, -0.0000000000000000000, -1.000000000000000000 ) ) ;
#71 = APPROVAL_STATUS ( 'not_yet_approved' ) ;
#72 = APPLICATION_CONTEXT ( 'configuration controlled 3d designs of mechanical parts and assemblies' ) ;
#73 = SECURITY_CLASSIFICATION ( '', '', #133 ) ;
#74 = CALENDAR_DATE ( 2018, 18, 10 ) ;
#75 = DIRECTION ( 'NONE',  ( -1.000000000000000000, 0.0000000000000000000, 0.0000000000000000000 ) ) ;
#76 = CARTESIAN_POINT ( 'NONE',  ( -9.550000000000000700, 0.0000000000000000000, -3.174999999999999800 ) ) ;
#77 = DIRECTION ( 'NONE',  ( -0.0000000000000000000, -0.0000000000000000000, -1.000000000000000000 ) ) ;
#78 = ORIENTED_EDGE ( 'NONE', *, *, #124, .F. ) ;
#79 = APPROVAL_ROLE ( '' ) ;
#80 = EDGE_CURVE ( 'NONE', #127, #159, #121, .T. ) ;
#81 = ORIENTED_EDGE ( 'NONE', *, *, #51, .F. ) ;
#82 = CALENDAR_DATE ( 2018, 18, 10 ) ;
#83 = COORDINATED_UNIVERSAL_TIME_OFFSET ( 5, 0, .BEHIND. ) ;
#84 = DIRECTION ( 'NONE',  ( -0.0000000000000000000, -0.0000000000000000000, -1.000000000000000000 ) ) ;
#85 = CLOSED_SHELL ( 'NONE', ( #8, #10, #62, #64 ) ) ;
#86 = DIRECTION ( 'NONE',  ( 1.000000000000000000, 0.0000000000000000000, -0.0000000000000000000 ) ) ;
#87 = EDGE_CURVE ( 'NONE', #127, #66, #63, .T. ) ;
#88 = DIRECTION ( 'NONE',  ( 0.0000000000000000000, 0.0000000000000000000, 1.000000000000000000 ) ) ;
#89 = LOCAL_TIME ( 15, 48, 7.000000000000000000, #23 ) ;
#90 = CIRCLE ( 'NONE', #109, 9.550000000000000700 ) ;
#91 = PERSON_AND_ORGANIZATION ( #151, #69 ) ;
#92 = CC_DESIGN_PERSON_AND_ORGANIZATION_ASSIGNMENT ( #113, #48, ( #73 ) ) ;
#93 = PERSON_AND_ORGANIZATION_ROLE ( 'creator' ) ;
#94 = APPROVAL_STATUS ( 'not_yet_approved' ) ;
#95 = DATE_AND_TIME ( #74, #140 ) ;
#96 = DIRECTION ( 'NONE',  ( -0.0000000000000000000, -0.0000000000000000000, -1.000000000000000000 ) ) ;
#97 = CARTESIAN_POINT ( 'NONE',  ( 0.0000000000000000000, 0.0000000000000000000, -3.174999999999999800 ) ) ;
#98 = CC_DESIGN_DATE_AND_TIME_ASSIGNMENT ( #95, #103, ( #73 ) ) ;
#99 = FACE_OUTER_BOUND ( 'NONE', #123, .T. ) ;
#100 = CARTESIAN_POINT ( 'NONE',  ( 0.0000000000000000000, 0.0000000000000000000, 3.174999999999999800 ) ) ;
#101 = COORDINATED_UNIVERSAL_TIME_OFFSET ( 5, 0, .BEHIND. ) ;
#102 = DIRECTION ( 'NONE',  ( 1.000000000000000000, 0.0000000000000000000, 0.0000000000000000000 ) ) ;
#103 = DATE_TIME_ROLE ( 'classification_date' ) ;
#104 = AXIS2_PLACEMENT_3D ( 'NONE', #97, #171, #86 ) ;
#105 = DATE_AND_TIME ( #45, #11 ) ;
#106 = APPROVAL ( #71, 'UNSPECIFIED' ) ;
#107 = ORIENTED_EDGE ( 'NONE', *, *, #87, .F. ) ;
#108 = DIRECTION ( 'NONE',  ( 0.0000000000000000000, 0.0000000000000000000, 1.000000000000000000 ) ) ;
#109 = AXIS2_PLACEMENT_3D ( 'NONE', #169, #108, #170 ) ;
#110 = PLANE ( 'NONE',  #27 ) ;
#111 = CARTESIAN_POINT ( 'NONE',  ( 0.0000000000000000000, 0.0000000000000000000, 0.0000000000000000000 ) ) ;
#112 = CARTESIAN_POINT ( 'NONE',  ( 9.550000000000000700, 1.169537693185722600E-015, 3.174999999999999800 ) ) ;
#113 = PERSON_AND_ORGANIZATION ( #151, #69 ) ;
#114 = MECHANICAL_CONTEXT ( 'NONE', #116, 'mechanical' ) ;
#115 = CYLINDRICAL_SURFACE ( 'NONE', #6, 9.550000000000000700 ) ;
#116 = APPLICATION_CONTEXT ( 'configuration controlled 3d designs of mechanical parts and assemblies' ) ;
#117 = CC_DESIGN_SECURITY_CLASSIFICATION ( #73, ( #44 ) ) ;
#118 =( NAMED_UNIT ( * ) PLANE_ANGLE_UNIT ( ) SI_UNIT ( $, .RADIAN. ) );
#119 = ORIENTED_EDGE ( 'NONE', *, *, #57, .F. ) ;
#120 = APPROVAL_DATE_TIME ( #38, #14 ) ;
#121 = CIRCLE ( 'NONE', #68, 9.550000000000000700 ) ;
#122 = CC_DESIGN_PERSON_AND_ORGANIZATION_ASSIGNMENT ( #167, #146, ( #29 ) ) ;
#123 = EDGE_LOOP ( 'NONE', ( #165, #60, #59, #52 ) ) ;
#124 = EDGE_CURVE ( 'NONE', #159, #127, #157, .T. ) ;
#125 = CARTESIAN_POINT ( 'NONE',  ( -9.550000000000000700, 0.0000000000000000000, 3.174999999999999800 ) ) ;
#126 = DIRECTION ( 'NONE',  ( 0.0000000000000000000, 0.0000000000000000000, 1.000000000000000000 ) ) ;
#127 = VERTEX_POINT ( 'NONE', #32 ) ;
#128 = PLANE ( 'NONE',  #104 ) ;
#129 = DIRECTION ( 'NONE',  ( 0.0000000000000000000, 0.0000000000000000000, 1.000000000000000000 ) ) ;
#130 = CC_DESIGN_APPROVAL ( #106, ( #73 ) ) ;
#131 = PERSON_AND_ORGANIZATION ( #151, #69 ) ;
#132 = UNCERTAINTY_MEASURE_WITH_UNIT (LENGTH_MEASURE( 1.000000000000000100E-005 ), #50, 'distance_accuracy_value', 'NONE');
#133 = SECURITY_CLASSIFICATION_LEVEL ( 'unclassified' ) ;
#134 = EDGE_CURVE ( 'NONE', #159, #7, #49, .T. ) ;
#135 = DIRECTION ( 'NONE',  ( 0.0000000000000000000, 0.0000000000000000000, 1.000000000000000000 ) ) ;
#136 = CYLINDRICAL_SURFACE ( 'NONE', #3, 9.550000000000000700 ) ;
#137 =( GEOMETRIC_REPRESENTATION_CONTEXT ( 3 ) GLOBAL_UNCERTAINTY_ASSIGNED_CONTEXT ( ( #132 ) ) GLOBAL_UNIT_ASSIGNED_CONTEXT ( ( #50, #118, #58 ) ) REPRESENTATION_CONTEXT ( 'NONE', 'WORKASPACE' ) );
#138 = SHAPE_DEFINITION_REPRESENTATION ( #12, #158 ) ;
#139 = ORIENTED_EDGE ( 'NONE', *, *, #57, .T. ) ;
#140 = LOCAL_TIME ( 15, 48, 7.000000000000000000, #61 ) ;
#141 = APPROVAL_PERSON_ORGANIZATION ( #131, #65, #148 ) ;
#142 = CARTESIAN_POINT ( 'NONE',  ( 0.0000000000000000000, 0.0000000000000000000, -3.174999999999999800 ) ) ;
#143 = CARTESIAN_POINT ( 'NONE',  ( 0.0000000000000000000, 0.0000000000000000000, 3.174999999999999800 ) ) ;
#144 = VECTOR ( 'NONE', #70, 1000.000000000000000 ) ;
#145 = PERSON_AND_ORGANIZATION ( #151, #69 ) ;
#146 = PERSON_AND_ORGANIZATION_ROLE ( 'design_owner' ) ;
#147 = PRODUCT_RELATED_PRODUCT_CATEGORY ( 'detail', '', ( #29 ) ) ;
#148 = APPROVAL_ROLE ( '' ) ;
#149 = EDGE_LOOP ( 'NONE', ( #81, #119 ) ) ;
#150 = APPROVAL_DATE_TIME ( #30, #106 ) ;
#151 = PERSON ( 'UNSPECIFIED', 'UNSPECIFIED', 'UNSPECIFIED', ('UNSPECIFIED'), ('UNSPECIFIED'), ('UNSPECIFIED') ) ;
#152 = EDGE_LOOP ( 'NONE', ( #26, #54 ) ) ;
#153 = AXIS2_PLACEMENT_3D ( 'NONE', #111, #135, #102 ) ;
#154 = APPROVAL_PERSON_ORGANIZATION ( #25, #14, #79 ) ;
#155 = CALENDAR_DATE ( 2018, 18, 10 ) ;
#156 = DIRECTION ( 'NONE',  ( 1.000000000000000000, 0.0000000000000000000, -0.0000000000000000000 ) ) ;
#157 = CIRCLE ( 'NONE', #56, 9.550000000000000700 ) ;
#158 = ADVANCED_BREP_SHAPE_REPRESENTATION ( 'Web Model 38911_38992', ( #2, #153 ), #137 ) ;
#159 = VERTEX_POINT ( 'NONE', #174 ) ;
#160 = DIRECTION ( 'NONE',  ( 1.000000000000000000, 0.0000000000000000000, 0.0000000000000000000 ) ) ;
#161 = DATE_TIME_ROLE ( 'creation_date' ) ;
#162 = CIRCLE ( 'NONE', #17, 9.550000000000000700 ) ;
#163 = CC_DESIGN_APPROVAL ( #14, ( #44 ) ) ;
#164 = APPROVAL_STATUS ( 'not_yet_approved' ) ;
#165 = ORIENTED_EDGE ( 'NONE', *, *, #134, .F. ) ;
#166 = FACE_OUTER_BOUND ( 'NONE', #152, .T. ) ;
#167 = PERSON_AND_ORGANIZATION ( #151, #69 ) ;
#168 = CARTESIAN_POINT ( 'NONE',  ( 0.0000000000000000000, 0.0000000000000000000, 3.174999999999999800 ) ) ;
#169 = CARTESIAN_POINT ( 'NONE',  ( 0.0000000000000000000, 0.0000000000000000000, -3.174999999999999800 ) ) ;
#170 = DIRECTION ( 'NONE',  ( 1.000000000000000000, 0.0000000000000000000, 0.0000000000000000000 ) ) ;
#171 = DIRECTION ( 'NONE',  ( 0.0000000000000000000, 0.0000000000000000000, 1.000000000000000000 ) ) ;
#172 = CARTESIAN_POINT ( 'NONE',  ( 0.0000000000000000000, 0.0000000000000000000, 3.174999999999999800 ) ) ;
#173 = PRODUCT_DEFINITION ( 'UNKNOWN', '', #44, #39 ) ;
#174 = CARTESIAN_POINT ( 'NONE',  ( 9.550000000000000700, 1.169537693185722600E-015, 3.174999999999999800 ) ) ;
#175 = CC_DESIGN_DATE_AND_TIME_ASSIGNMENT ( #36, #161, ( #173 ) ) ;
ENDSEC;
END-ISO-10303-21;
