ISO-10303-21;
HEADER;
FILE_DESCRIPTION (( 'STEP AP203' ),
    '1' );
FILE_NAME ('Web Model 14959_18324.step',
    '2021-06-28T14:41:54',
    ( '' ),
    ( '' ),
    'SwSTEP 2.0',
    'SolidWorks 2018',
    '' );
FILE_SCHEMA (( 'CONFIG_CONTROL_DESIGN' ));
ENDSEC;

DATA;
#1 = CC_DESIGN_PERSON_AND_ORGANIZATION_ASSIGNMENT ( #101, #126, ( #173 ) ) ;
#2 = COORDINATED_UNIVERSAL_TIME_OFFSET ( 5, 0, .BEHIND. ) ;
#3 = DIRECTION ( 'NONE',  ( -1.000000000000000000, -0.000000000000000000, -0.000000000000000000 ) ) ;
#4 = DIRECTION ( 'NONE',  ( 0.000000000000000000, 0.000000000000000000, -1.000000000000000000 ) ) ;
#5 = ORIENTED_EDGE ( 'NONE', *, *, #144, .T. ) ;
#6 = LOCAL_TIME ( 10, 41, 54.00000000000000000, #68 ) ;
#7 = DIRECTION ( 'NONE',  ( 1.000000000000000000, 0.000000000000000000, 0.000000000000000000 ) ) ;
#8 = DIRECTION ( 'NONE',  ( 0.000000000000000000, 0.000000000000000000, -1.000000000000000000 ) ) ;
#9 = APPROVAL_STATUS ( 'not_yet_approved' ) ;
#10 = ORIENTED_EDGE ( 'NONE', *, *, #40, .F. ) ;
#11 = CC_DESIGN_DATE_AND_TIME_ASSIGNMENT ( #142, #33, ( #173 ) ) ;
#12 = CYLINDRICAL_SURFACE ( 'NONE', #152, 6.250000000000000000 ) ;
#13 = CALENDAR_DATE ( 2021, 28, 6 ) ;
#14 = ORIENTED_EDGE ( 'NONE', *, *, #40, .T. ) ;
#15 = ORIENTED_EDGE ( 'NONE', *, *, #131, .F. ) ;
#16 = AXIS2_PLACEMENT_3D ( 'NONE', #21, #153, #123 ) ;
#17 = LOCAL_TIME ( 10, 41, 54.00000000000000000, #52 ) ;
#18 = APPLICATION_PROTOCOL_DEFINITION ( 'international standard', 'config_control_design', 1994, #138 ) ;
#19 = CARTESIAN_POINT ( 'NONE',  ( 1.500000000000000000, 0.000000000000000000, 0.000000000000000000 ) ) ;
#20 = PLANE ( 'NONE',  #134 ) ;
#21 = CARTESIAN_POINT ( 'NONE',  ( 1.500000000000000000, 0.000000000000000000, 0.000000000000000000 ) ) ;
#22 = APPROVAL_ROLE ( '' ) ;
#23 = DATE_TIME_ROLE ( 'creation_date' ) ;
#24 = CALENDAR_DATE ( 2021, 28, 6 ) ;
#25 = DATE_AND_TIME ( #24, #87 ) ;
#26 = AXIS2_PLACEMENT_3D ( 'NONE', #66, #57, #76 ) ;
#27 = CIRCLE ( 'NONE', #42, 6.250000000000000000 ) ;
#28 = EDGE_LOOP ( 'NONE', ( #71, #15, #175, #14 ) ) ;
#29 = PERSON_AND_ORGANIZATION ( #164, #161 ) ;
#30 =( NAMED_UNIT ( * ) PLANE_ANGLE_UNIT ( ) SI_UNIT ( $, .RADIAN. ) );
#31 = DIRECTION ( 'NONE',  ( -1.000000000000000000, -0.000000000000000000, -0.000000000000000000 ) ) ;
#32 = DIRECTION ( 'NONE',  ( 1.000000000000000000, 0.000000000000000000, 0.000000000000000000 ) ) ;
#33 = DATE_TIME_ROLE ( 'classification_date' ) ;
#34 = DESIGN_CONTEXT ( 'detailed design', #138, 'design' ) ;
#35 = APPROVAL_STATUS ( 'not_yet_approved' ) ;
#36 = CC_DESIGN_PERSON_AND_ORGANIZATION_ASSIGNMENT ( #29, #95, ( #98 ) ) ;
#37 = ADVANCED_FACE ( 'NONE', ( #74 ), #20, .F. ) ;
#38 = APPROVAL_PERSON_ORGANIZATION ( #174, #105, #114 ) ;
#39 = PERSON_AND_ORGANIZATION ( #164, #161 ) ;
#40 = EDGE_CURVE ( 'NONE', #53, #115, #141, .T. ) ;
#41 = CALENDAR_DATE ( 2021, 28, 6 ) ;
#42 = AXIS2_PLACEMENT_3D ( 'NONE', #19, #165, #44 ) ;
#43 = CLOSED_SHELL ( 'NONE', ( #50, #85, #84, #37 ) ) ;
#44 = DIRECTION ( 'NONE',  ( 0.000000000000000000, 0.000000000000000000, -1.000000000000000000 ) ) ;
#45 = FACE_OUTER_BOUND ( 'NONE', #112, .T. ) ;
#46 = PRODUCT_RELATED_PRODUCT_CATEGORY ( 'detail', '', ( #120 ) ) ;
#47 = APPLICATION_CONTEXT ( 'configuration controlled 3d designs of mechanical parts and assemblies' ) ;
#48 = DATE_AND_TIME ( #13, #17 ) ;
#49 = CC_DESIGN_PERSON_AND_ORGANIZATION_ASSIGNMENT ( #39, #79, ( #120 ) ) ;
#50 = ADVANCED_FACE ( 'NONE', ( #45 ), #12, .T. ) ;
#51 = CC_DESIGN_DATE_AND_TIME_ASSIGNMENT ( #25, #23, ( #116 ) ) ;
#52 = COORDINATED_UNIVERSAL_TIME_OFFSET ( 5, 0, .BEHIND. ) ;
#53 = VERTEX_POINT ( 'NONE', #156 ) ;
#54 = APPROVAL ( #104, 'UNSPECIFIED' ) ;
#55 = DIRECTION ( 'NONE',  ( 1.000000000000000000, 0.000000000000000000, 0.000000000000000000 ) ) ;
#56 = EDGE_LOOP ( 'NONE', ( #102, #5 ) ) ;
#57 = DIRECTION ( 'NONE',  ( 0.000000000000000000, 0.000000000000000000, 1.000000000000000000 ) ) ;
#58 = APPROVAL_PERSON_ORGANIZATION ( #163, #111, #22 ) ;
#59 = CIRCLE ( 'NONE', #159, 6.250000000000000000 ) ;
#60 = VERTEX_POINT ( 'NONE', #135 ) ;
#61 = APPROVAL_DATE_TIME ( #166, #111 ) ;
#62 = DATE_AND_TIME ( #93, #148 ) ;
#63 = CARTESIAN_POINT ( 'NONE',  ( -1.500000000000000000, 0.000000000000000000, 0.000000000000000000 ) ) ;
#64 = VECTOR ( 'NONE', #136, 1000.000000000000000 ) ;
#65 = DIRECTION ( 'NONE',  ( -1.000000000000000000, -0.000000000000000000, -0.000000000000000000 ) ) ;
#66 = CARTESIAN_POINT ( 'NONE',  ( 0.000000000000000000, 0.000000000000000000, 0.000000000000000000 ) ) ;
#67 = FACE_OUTER_BOUND ( 'NONE', #28, .T. ) ;
#68 = COORDINATED_UNIVERSAL_TIME_OFFSET ( 5, 0, .BEHIND. ) ;
#69 = CARTESIAN_POINT ( 'NONE',  ( 1.500000000000000000, 0.000000000000000000, 0.000000000000000000 ) ) ;
#70 = PERSON_AND_ORGANIZATION ( #164, #161 ) ;
#71 = ORIENTED_EDGE ( 'NONE', *, *, #88, .F. ) ;
#72 = SHAPE_DEFINITION_REPRESENTATION ( #155, #73 ) ;
#73 = ADVANCED_BREP_SHAPE_REPRESENTATION ( 'Web Model 14959_18324', ( #127, #26 ), #149 ) ;
#74 = FACE_OUTER_BOUND ( 'NONE', #75, .T. ) ;
#75 = EDGE_LOOP ( 'NONE', ( #10, #89 ) ) ;
#76 = DIRECTION ( 'NONE',  ( 1.000000000000000000, 0.000000000000000000, 0.000000000000000000 ) ) ;
#77 = FACE_OUTER_BOUND ( 'NONE', #56, .T. ) ;
#78 = UNCERTAINTY_MEASURE_WITH_UNIT (LENGTH_MEASURE( 1.000000000000000082E-05 ), #125, 'distance_accuracy_value', 'NONE');
#79 = PERSON_AND_ORGANIZATION_ROLE ( 'design_owner' ) ;
#80 = CARTESIAN_POINT ( 'NONE',  ( -1.500000000000000000, 0.000000000000000000, 0.000000000000000000 ) ) ;
#81 = APPROVAL_PERSON_ORGANIZATION ( #119, #54, #96 ) ;
#82 = ORIENTED_EDGE ( 'NONE', *, *, #144, .F. ) ;
#83 = LOCAL_TIME ( 10, 41, 54.00000000000000000, #132 ) ;
#84 = ADVANCED_FACE ( 'NONE', ( #77 ), #106, .T. ) ;
#85 = ADVANCED_FACE ( 'NONE', ( #67 ), #154, .T. ) ;
#86 = VERTEX_POINT ( 'NONE', #91 ) ;
#87 = LOCAL_TIME ( 10, 41, 54.00000000000000000, #97 ) ;
#88 = EDGE_CURVE ( 'NONE', #60, #115, #147, .T. ) ;
#89 = ORIENTED_EDGE ( 'NONE', *, *, #117, .F. ) ;
#90 = MECHANICAL_CONTEXT ( 'NONE', #47, 'mechanical' ) ;
#91 = CARTESIAN_POINT ( 'NONE',  ( 1.500000000000000000, 0.000000000000000000, 6.250000000000000000 ) ) ;
#92 = CARTESIAN_POINT ( 'NONE',  ( 1.500000000000000000, 0.000000000000000000, 0.000000000000000000 ) ) ;
#93 = CALENDAR_DATE ( 2021, 28, 6 ) ;
#94 = CARTESIAN_POINT ( 'NONE',  ( -1.500000000000000000, 0.000000000000000000, 0.000000000000000000 ) ) ;
#95 = PERSON_AND_ORGANIZATION_ROLE ( 'creator' ) ;
#96 = APPROVAL_ROLE ( '' ) ;
#97 = COORDINATED_UNIVERSAL_TIME_OFFSET ( 5, 0, .BEHIND. ) ;
#98 = PRODUCT_DEFINITION_FORMATION_WITH_SPECIFIED_SOURCE ( 'ANY', '', #120, .NOT_KNOWN. ) ;
#99 = AXIS2_PLACEMENT_3D ( 'NONE', #92, #32, #122 ) ;
#100 = LINE ( 'NONE', #137, #64 ) ;
#101 = PERSON_AND_ORGANIZATION ( #164, #161 ) ;
#102 = ORIENTED_EDGE ( 'NONE', *, *, #131, .T. ) ;
#103 = CC_DESIGN_APPROVAL ( #111, ( #98 ) ) ;
#104 = APPROVAL_STATUS ( 'not_yet_approved' ) ;
#105 = APPROVAL ( #35, 'UNSPECIFIED' ) ;
#106 = PLANE ( 'NONE',  #16 ) ;
#107 = CARTESIAN_POINT ( 'NONE',  ( 1.500000000000000000, 7.654042494670957606E-16, -6.250000000000000000 ) ) ;
#108 = APPROVAL_DATE_TIME ( #62, #105 ) ;
#109 = APPLICATION_PROTOCOL_DEFINITION ( 'international standard', 'config_control_design', 1994, #47 ) ;
#110 = DIRECTION ( 'NONE',  ( 0.000000000000000000, 0.000000000000000000, -1.000000000000000000 ) ) ;
#111 = APPROVAL ( #9, 'UNSPECIFIED' ) ;
#112 = EDGE_LOOP ( 'NONE', ( #82, #151, #145, #118 ) ) ;
#113 = SECURITY_CLASSIFICATION_LEVEL ( 'unclassified' ) ;
#114 = APPROVAL_ROLE ( '' ) ;
#115 = VERTEX_POINT ( 'NONE', #121 ) ;
#116 = PRODUCT_DEFINITION ( 'UNKNOWN', '', #98, #34 ) ;
#117 = EDGE_CURVE ( 'NONE', #115, #53, #59, .T. ) ;
#118 = ORIENTED_EDGE ( 'NONE', *, *, #158, .F. ) ;
#119 = PERSON_AND_ORGANIZATION ( #164, #161 ) ;
#120 = PRODUCT ( 'Web Model 14959_18324', 'Web Model 14959_18324', '', ( #90 ) ) ;
#121 = CARTESIAN_POINT ( 'NONE',  ( -1.500000000000000000, 7.654042494670957606E-16, -6.250000000000000000 ) ) ;
#122 = DIRECTION ( 'NONE',  ( 0.000000000000000000, 0.000000000000000000, -1.000000000000000000 ) ) ;
#123 = DIRECTION ( 'NONE',  ( 0.000000000000000000, 0.000000000000000000, -1.000000000000000000 ) ) ;
#124 = DIRECTION ( 'NONE',  ( 0.000000000000000000, 0.000000000000000000, 1.000000000000000000 ) ) ;
#125 =( LENGTH_UNIT ( ) NAMED_UNIT ( * ) SI_UNIT ( .MILLI., .METRE. ) );
#126 = PERSON_AND_ORGANIZATION_ROLE ( 'classification_officer' ) ;
#127 = MANIFOLD_SOLID_BREP ( 'Boss-Extrude1', #43 ) ;
#128 = VECTOR ( 'NONE', #31, 1000.000000000000000 ) ;
#129 = CALENDAR_DATE ( 2021, 28, 6 ) ;
#130 = CC_DESIGN_APPROVAL ( #105, ( #173 ) ) ;
#131 = EDGE_CURVE ( 'NONE', #86, #60, #170, .T. ) ;
#132 = COORDINATED_UNIVERSAL_TIME_OFFSET ( 5, 0, .BEHIND. ) ;
#133 = DIRECTION ( 'NONE',  ( 1.000000000000000000, 0.000000000000000000, 0.000000000000000000 ) ) ;
#134 = AXIS2_PLACEMENT_3D ( 'NONE', #63, #55, #8 ) ;
#135 = CARTESIAN_POINT ( 'NONE',  ( 1.500000000000000000, 7.654042494670957606E-16, -6.250000000000000000 ) ) ;
#136 = DIRECTION ( 'NONE',  ( -1.000000000000000000, -0.000000000000000000, -0.000000000000000000 ) ) ;
#137 = CARTESIAN_POINT ( 'NONE',  ( 1.500000000000000000, 0.000000000000000000, 6.250000000000000000 ) ) ;
#138 = APPLICATION_CONTEXT ( 'configuration controlled 3d designs of mechanical parts and assemblies' ) ;
#139 = CC_DESIGN_APPROVAL ( #54, ( #116 ) ) ;
#140 = PERSON_AND_ORGANIZATION_ROLE ( 'design_supplier' ) ;
#141 = CIRCLE ( 'NONE', #160, 6.250000000000000000 ) ;
#142 = DATE_AND_TIME ( #41, #6 ) ;
#143 = CC_DESIGN_SECURITY_CLASSIFICATION ( #173, ( #98 ) ) ;
#144 = EDGE_CURVE ( 'NONE', #60, #86, #27, .T. ) ;
#145 = ORIENTED_EDGE ( 'NONE', *, *, #117, .T. ) ;
#146 = AXIS2_PLACEMENT_3D ( 'NONE', #69, #3, #169 ) ;
#147 = LINE ( 'NONE', #107, #128 ) ;
#148 = LOCAL_TIME ( 10, 41, 54.00000000000000000, #2 ) ;
#149 =( GEOMETRIC_REPRESENTATION_CONTEXT ( 3 ) GLOBAL_UNCERTAINTY_ASSIGNED_CONTEXT ( ( #78 ) ) GLOBAL_UNIT_ASSIGNED_CONTEXT ( ( #125, #30, #167 ) ) REPRESENTATION_CONTEXT ( 'NONE', 'WORKASPACE' ) );
#150 = APPROVAL_DATE_TIME ( #48, #54 ) ;
#151 = ORIENTED_EDGE ( 'NONE', *, *, #88, .T. ) ;
#152 = AXIS2_PLACEMENT_3D ( 'NONE', #157, #65, #124 ) ;
#153 = DIRECTION ( 'NONE',  ( 1.000000000000000000, 0.000000000000000000, 0.000000000000000000 ) ) ;
#154 = CYLINDRICAL_SURFACE ( 'NONE', #146, 6.250000000000000000 ) ;
#155 = PRODUCT_DEFINITION_SHAPE ( 'NONE', 'NONE',  #116 ) ;
#156 = CARTESIAN_POINT ( 'NONE',  ( -1.500000000000000000, 0.000000000000000000, 6.250000000000000000 ) ) ;
#157 = CARTESIAN_POINT ( 'NONE',  ( 1.500000000000000000, 0.000000000000000000, 0.000000000000000000 ) ) ;
#158 = EDGE_CURVE ( 'NONE', #86, #53, #100, .T. ) ;
#159 = AXIS2_PLACEMENT_3D ( 'NONE', #94, #133, #110 ) ;
#160 = AXIS2_PLACEMENT_3D ( 'NONE', #80, #7, #4 ) ;
#161 = ORGANIZATION ( 'UNSPECIFIED', 'UNSPECIFIED', '' ) ;
#162 = CC_DESIGN_PERSON_AND_ORGANIZATION_ASSIGNMENT ( #70, #171, ( #116 ) ) ;
#163 = PERSON_AND_ORGANIZATION ( #164, #161 ) ;
#164 = PERSON ( 'UNSPECIFIED', 'UNSPECIFIED', 'UNSPECIFIED', ('UNSPECIFIED'), ('UNSPECIFIED'), ('UNSPECIFIED') ) ;
#165 = DIRECTION ( 'NONE',  ( 1.000000000000000000, 0.000000000000000000, 0.000000000000000000 ) ) ;
#166 = DATE_AND_TIME ( #129, #83 ) ;
#167 =( NAMED_UNIT ( * ) SI_UNIT ( $, .STERADIAN. ) SOLID_ANGLE_UNIT ( ) );
#168 = CC_DESIGN_PERSON_AND_ORGANIZATION_ASSIGNMENT ( #172, #140, ( #98 ) ) ;
#169 = DIRECTION ( 'NONE',  ( 0.000000000000000000, 0.000000000000000000, 1.000000000000000000 ) ) ;
#170 = CIRCLE ( 'NONE', #99, 6.250000000000000000 ) ;
#171 = PERSON_AND_ORGANIZATION_ROLE ( 'creator' ) ;
#172 = PERSON_AND_ORGANIZATION ( #164, #161 ) ;
#173 = SECURITY_CLASSIFICATION ( '', '', #113 ) ;
#174 = PERSON_AND_ORGANIZATION ( #164, #161 ) ;
#175 = ORIENTED_EDGE ( 'NONE', *, *, #158, .T. ) ;
ENDSEC;
END-ISO-10303-21;
