ISO-10303-21;
HEADER;
FILE_DESCRIPTION (( 'STEP AP203' ),
    '1' );
FILE_NAME ('Web Model 43888_12184.step',
    '2019-01-28T19:00:43',
    ( '' ),
    ( '' ),
    'SwSTEP 2.0',
    'SolidWorks 2016',
    '' );
FILE_SCHEMA (( 'CONFIG_CONTROL_DESIGN' ));
ENDSEC;

DATA;
#1 = APPROVAL_ROLE ( '' ) ;
#2 = ORIENTED_EDGE ( 'NONE', *, *, #117, .F. ) ;
#3 = APPLICATION_CONTEXT ( 'configuration controlled 3d designs of mechanical parts and assemblies' ) ;
#4 = PRODUCT_RELATED_PRODUCT_CATEGORY ( 'detail', '', ( #68 ) ) ;
#5 = APPLICATION_PROTOCOL_DEFINITION ( 'international standard', 'config_control_design', 1994, #3 ) ;
#6 = AXIS2_PLACEMENT_3D ( 'NONE', #77, #114, #120 ) ;
#7 = PRODUCT_DEFINITION ( 'UNKNOWN', '', #143, #144 ) ;
#8 = LOCAL_TIME ( 14, 0, 43.00000000000000000, #39 ) ;
#9 = CALENDAR_DATE ( 2019, 28, 1 ) ;
#10 = COORDINATED_UNIVERSAL_TIME_OFFSET ( 5, 0, .BEHIND. ) ;
#11 = DIRECTION ( 'NONE',  ( -0.0000000000000000000, -0.0000000000000000000, -1.000000000000000000 ) ) ;
#12 = COORDINATED_UNIVERSAL_TIME_OFFSET ( 5, 0, .BEHIND. ) ;
#13 = CARTESIAN_POINT ( 'NONE',  ( -2.499999999999999600, 0.0000000000000000000, 1.750000000000000000 ) ) ;
#14 = DATE_AND_TIME ( #141, #173 ) ;
#15 = PERSON_AND_ORGANIZATION ( #109, #81 ) ;
#16 = CARTESIAN_POINT ( 'NONE',  ( 0.0000000000000000000, 0.0000000000000000000, 1.750000000000000000 ) ) ;
#17 = DIRECTION ( 'NONE',  ( 1.000000000000000000, 0.0000000000000000000, 0.0000000000000000000 ) ) ;
#18 = CC_DESIGN_PERSON_AND_ORGANIZATION_ASSIGNMENT ( #136, #121, ( #143 ) ) ;
#19 = CALENDAR_DATE ( 2019, 28, 1 ) ;
#20 = DATE_TIME_ROLE ( 'classification_date' ) ;
#21 = AXIS2_PLACEMENT_3D ( 'NONE', #86, #40, #90 ) ;
#22 = PERSON_AND_ORGANIZATION ( #109, #81 ) ;
#23 = AXIS2_PLACEMENT_3D ( 'NONE', #130, #53, #51 ) ;
#24 = VERTEX_POINT ( 'NONE', #116 ) ;
#25 = CALENDAR_DATE ( 2019, 28, 1 ) ;
#26 = ORIENTED_EDGE ( 'NONE', *, *, #88, .F. ) ;
#27 = FACE_OUTER_BOUND ( 'NONE', #50, .T. ) ;
#28 = CARTESIAN_POINT ( 'NONE',  ( 0.0000000000000000000, 0.0000000000000000000, 1.750000000000000000 ) ) ;
#29 = CC_DESIGN_PERSON_AND_ORGANIZATION_ASSIGNMENT ( #145, #160, ( #7 ) ) ;
#30 = DIRECTION ( 'NONE',  ( 0.0000000000000000000, 0.0000000000000000000, 1.000000000000000000 ) ) ;
#31 = CARTESIAN_POINT ( 'NONE',  ( -2.499999999999999600, 0.0000000000000000000, 1.750000000000000000 ) ) ;
#32 = AXIS2_PLACEMENT_3D ( 'NONE', #157, #30, #59 ) ;
#33 = DIRECTION ( 'NONE',  ( -0.0000000000000000000, -0.0000000000000000000, -1.000000000000000000 ) ) ;
#34 = CYLINDRICAL_SURFACE ( 'NONE', #47, 2.499999999999999600 ) ;
#35 = COORDINATED_UNIVERSAL_TIME_OFFSET ( 5, 0, .BEHIND. ) ;
#36 = FACE_OUTER_BOUND ( 'NONE', #63, .T. ) ;
#37 = DATE_AND_TIME ( #19, #72 ) ;
#38 = LINE ( 'NONE', #129, #85 ) ;
#39 = COORDINATED_UNIVERSAL_TIME_OFFSET ( 5, 0, .BEHIND. ) ;
#40 = DIRECTION ( 'NONE',  ( 0.0000000000000000000, 0.0000000000000000000, 1.000000000000000000 ) ) ;
#41 = PLANE ( 'NONE',  #21 ) ;
#42 = CC_DESIGN_DATE_AND_TIME_ASSIGNMENT ( #149, #163, ( #7 ) ) ;
#43 = PERSON_AND_ORGANIZATION ( #109, #81 ) ;
#44 = LINE ( 'NONE', #13, #52 ) ;
#45 = PERSON_AND_ORGANIZATION_ROLE ( 'design_owner' ) ;
#46 = SECURITY_CLASSIFICATION ( '', '', #103 ) ;
#47 = AXIS2_PLACEMENT_3D ( 'NONE', #28, #33, #146 ) ;
#48 = CARTESIAN_POINT ( 'NONE',  ( 0.0000000000000000000, 0.0000000000000000000, 0.0000000000000000000 ) ) ;
#49 = EDGE_LOOP ( 'NONE', ( #155, #99 ) ) ;
#50 = EDGE_LOOP ( 'NONE', ( #156, #161 ) ) ;
#51 = DIRECTION ( 'NONE',  ( -1.000000000000000000, 0.0000000000000000000, 0.0000000000000000000 ) ) ;
#52 = VECTOR ( 'NONE', #11, 1000.000000000000000 ) ;
#53 = DIRECTION ( 'NONE',  ( -0.0000000000000000000, -0.0000000000000000000, -1.000000000000000000 ) ) ;
#54 = UNCERTAINTY_MEASURE_WITH_UNIT (LENGTH_MEASURE( 1.000000000000000100E-005 ), #148, 'distance_accuracy_value', 'NONE');
#55 = ORIENTED_EDGE ( 'NONE', *, *, #97, .T. ) ;
#56 = DIRECTION ( 'NONE',  ( 0.0000000000000000000, 0.0000000000000000000, 1.000000000000000000 ) ) ;
#57 = APPROVAL ( #93, 'UNSPECIFIED' ) ;
#58 = CYLINDRICAL_SURFACE ( 'NONE', #23, 2.499999999999999600 ) ;
#59 = DIRECTION ( 'NONE',  ( 1.000000000000000000, 0.0000000000000000000, -0.0000000000000000000 ) ) ;
#60 = DIRECTION ( 'NONE',  ( 0.0000000000000000000, 0.0000000000000000000, 1.000000000000000000 ) ) ;
#61 = APPROVAL_PERSON_ORGANIZATION ( #122, #165, #102 ) ;
#62 = EDGE_LOOP ( 'NONE', ( #73, #2, #89, #167 ) ) ;
#63 = EDGE_LOOP ( 'NONE', ( #26, #55, #128, #137 ) ) ;
#64 =( NAMED_UNIT ( * ) PLANE_ANGLE_UNIT ( ) SI_UNIT ( $, .RADIAN. ) );
#65 = PERSON_AND_ORGANIZATION_ROLE ( 'creator' ) ;
#66 = COORDINATED_UNIVERSAL_TIME_OFFSET ( 5, 0, .BEHIND. ) ;
#67 = CIRCLE ( 'NONE', #6, 2.499999999999999600 ) ;
#68 = PRODUCT ( 'Web Model 43888_12184', 'Web Model 43888_12184', '', ( #132 ) ) ;
#69 = APPROVAL_DATE_TIME ( #142, #133 ) ;
#70 = ADVANCED_FACE ( 'NONE', ( #140 ), #131, .F. ) ;
#71 = CC_DESIGN_PERSON_AND_ORGANIZATION_ASSIGNMENT ( #15, #45, ( #68 ) ) ;
#72 = LOCAL_TIME ( 14, 0, 43.00000000000000000, #66 ) ;
#73 = ORIENTED_EDGE ( 'NONE', *, *, #97, .F. ) ;
#74 = APPROVAL_PERSON_ORGANIZATION ( #106, #57, #104 ) ;
#75 = DIRECTION ( 'NONE',  ( 1.000000000000000000, 0.0000000000000000000, 0.0000000000000000000 ) ) ;
#76 = DIRECTION ( 'NONE',  ( -0.0000000000000000000, -0.0000000000000000000, -1.000000000000000000 ) ) ;
#77 = CARTESIAN_POINT ( 'NONE',  ( 0.0000000000000000000, 0.0000000000000000000, 1.750000000000000000 ) ) ;
#78 = LOCAL_TIME ( 14, 0, 43.00000000000000000, #12 ) ;
#79 = CARTESIAN_POINT ( 'NONE',  ( 0.0000000000000000000, 0.0000000000000000000, 0.0000000000000000000 ) ) ;
#80 = APPLICATION_CONTEXT ( 'configuration controlled 3d designs of mechanical parts and assemblies' ) ;
#81 = ORGANIZATION ( 'UNSPECIFIED', 'UNSPECIFIED', '' ) ;
#82 = AXIS2_PLACEMENT_3D ( 'NONE', #16, #60, #75 ) ;
#83 = AXIS2_PLACEMENT_3D ( 'NONE', #48, #147, #164 ) ;
#84 = AXIS2_PLACEMENT_3D ( 'NONE', #118, #175, #172 ) ;
#85 = VECTOR ( 'NONE', #76, 1000.000000000000000 ) ;
#86 = CARTESIAN_POINT ( 'NONE',  ( 0.0000000000000000000, 0.0000000000000000000, 1.750000000000000000 ) ) ;
#87 = CARTESIAN_POINT ( 'NONE',  ( -2.499999999999999600, 0.0000000000000000000, 0.0000000000000000000 ) ) ;
#88 = EDGE_CURVE ( 'NONE', #24, #94, #67, .T. ) ;
#89 = ORIENTED_EDGE ( 'NONE', *, *, #138, .T. ) ;
#90 = DIRECTION ( 'NONE',  ( 1.000000000000000000, 0.0000000000000000000, -0.0000000000000000000 ) ) ;
#91 = PERSON_AND_ORGANIZATION_ROLE ( 'classification_officer' ) ;
#92 = APPROVAL_STATUS ( 'not_yet_approved' ) ;
#93 = APPROVAL_STATUS ( 'not_yet_approved' ) ;
#94 = VERTEX_POINT ( 'NONE', #31 ) ;
#95 = AXIS2_PLACEMENT_3D ( 'NONE', #79, #56, #17 ) ;
#96 = CIRCLE ( 'NONE', #83, 2.499999999999999600 ) ;
#97 = EDGE_CURVE ( 'NONE', #24, #126, #38, .T. ) ;
#98 = CLOSED_SHELL ( 'NONE', ( #169, #135, #127, #70 ) ) ;
#99 = ORIENTED_EDGE ( 'NONE', *, *, #105, .F. ) ;
#100 = DATE_AND_TIME ( #139, #8 ) ;
#101 = CIRCLE ( 'NONE', #84, 2.499999999999999600 ) ;
#102 = APPROVAL_ROLE ( '' ) ;
#103 = SECURITY_CLASSIFICATION_LEVEL ( 'unclassified' ) ;
#104 = APPROVAL_ROLE ( '' ) ;
#105 = EDGE_CURVE ( 'NONE', #126, #119, #101, .T. ) ;
#106 = PERSON_AND_ORGANIZATION ( #109, #81 ) ;
#107 = LOCAL_TIME ( 14, 0, 43.00000000000000000, #10 ) ;
#108 = CC_DESIGN_SECURITY_CLASSIFICATION ( #46, ( #143 ) ) ;
#109 = PERSON ( 'UNSPECIFIED', 'UNSPECIFIED', 'UNSPECIFIED', ('UNSPECIFIED'), ('UNSPECIFIED'), ('UNSPECIFIED') ) ;
#110 = CC_DESIGN_APPROVAL ( #133, ( #7 ) ) ;
#111 = FACE_OUTER_BOUND ( 'NONE', #62, .T. ) ;
#112 =( GEOMETRIC_REPRESENTATION_CONTEXT ( 3 ) GLOBAL_UNCERTAINTY_ASSIGNED_CONTEXT ( ( #54 ) ) GLOBAL_UNIT_ASSIGNED_CONTEXT ( ( #148, #64, #159 ) ) REPRESENTATION_CONTEXT ( 'NONE', 'WORKASPACE' ) );
#113 = APPROVAL_DATE_TIME ( #100, #57 ) ;
#114 = DIRECTION ( 'NONE',  ( 0.0000000000000000000, 0.0000000000000000000, 1.000000000000000000 ) ) ;
#115 = CARTESIAN_POINT ( 'NONE',  ( 2.499999999999999600, 3.061616997868382600E-016, 0.0000000000000000000 ) ) ;
#116 = CARTESIAN_POINT ( 'NONE',  ( 2.499999999999999600, 3.061616997868382600E-016, 1.750000000000000000 ) ) ;
#117 = EDGE_CURVE ( 'NONE', #94, #24, #174, .T. ) ;
#118 = CARTESIAN_POINT ( 'NONE',  ( 0.0000000000000000000, 0.0000000000000000000, 0.0000000000000000000 ) ) ;
#119 = VERTEX_POINT ( 'NONE', #87 ) ;
#120 = DIRECTION ( 'NONE',  ( 1.000000000000000000, 0.0000000000000000000, 0.0000000000000000000 ) ) ;
#121 = PERSON_AND_ORGANIZATION_ROLE ( 'design_supplier' ) ;
#122 = PERSON_AND_ORGANIZATION ( #109, #81 ) ;
#123 = APPROVAL_STATUS ( 'not_yet_approved' ) ;
#124 = CC_DESIGN_PERSON_AND_ORGANIZATION_ASSIGNMENT ( #43, #91, ( #46 ) ) ;
#125 = MANIFOLD_SOLID_BREP ( 'Boss-Extrude1', #98 ) ;
#126 = VERTEX_POINT ( 'NONE', #115 ) ;
#127 = ADVANCED_FACE ( 'NONE', ( #27 ), #41, .T. ) ;
#128 = ORIENTED_EDGE ( 'NONE', *, *, #105, .T. ) ;
#129 = CARTESIAN_POINT ( 'NONE',  ( 2.499999999999999600, 3.061616997868382600E-016, 1.750000000000000000 ) ) ;
#130 = CARTESIAN_POINT ( 'NONE',  ( 0.0000000000000000000, 0.0000000000000000000, 1.750000000000000000 ) ) ;
#131 = PLANE ( 'NONE',  #32 ) ;
#132 = MECHANICAL_CONTEXT ( 'NONE', #3, 'mechanical' ) ;
#133 = APPROVAL ( #92, 'UNSPECIFIED' ) ;
#134 = APPLICATION_PROTOCOL_DEFINITION ( 'international standard', 'config_control_design', 1994, #80 ) ;
#135 = ADVANCED_FACE ( 'NONE', ( #111 ), #58, .T. ) ;
#136 = PERSON_AND_ORGANIZATION ( #109, #81 ) ;
#137 = ORIENTED_EDGE ( 'NONE', *, *, #138, .F. ) ;
#138 = EDGE_CURVE ( 'NONE', #94, #119, #44, .T. ) ;
#139 = CALENDAR_DATE ( 2019, 28, 1 ) ;
#140 = FACE_OUTER_BOUND ( 'NONE', #49, .T. ) ;
#141 = CALENDAR_DATE ( 2019, 28, 1 ) ;
#142 = DATE_AND_TIME ( #9, #107 ) ;
#143 = PRODUCT_DEFINITION_FORMATION_WITH_SPECIFIED_SOURCE ( 'ANY', '', #68, .NOT_KNOWN. ) ;
#144 = DESIGN_CONTEXT ( 'detailed design', #80, 'design' ) ;
#145 = PERSON_AND_ORGANIZATION ( #109, #81 ) ;
#146 = DIRECTION ( 'NONE',  ( -1.000000000000000000, 0.0000000000000000000, 0.0000000000000000000 ) ) ;
#147 = DIRECTION ( 'NONE',  ( 0.0000000000000000000, 0.0000000000000000000, 1.000000000000000000 ) ) ;
#148 =( LENGTH_UNIT ( ) NAMED_UNIT ( * ) SI_UNIT ( .MILLI., .METRE. ) );
#149 = DATE_AND_TIME ( #25, #78 ) ;
#150 = CC_DESIGN_DATE_AND_TIME_ASSIGNMENT ( #37, #20, ( #46 ) ) ;
#151 = APPROVAL_PERSON_ORGANIZATION ( #170, #133, #1 ) ;
#152 = CC_DESIGN_APPROVAL ( #165, ( #46 ) ) ;
#153 = APPROVAL_DATE_TIME ( #14, #165 ) ;
#154 = EDGE_CURVE ( 'NONE', #119, #126, #96, .T. ) ;
#155 = ORIENTED_EDGE ( 'NONE', *, *, #154, .F. ) ;
#156 = ORIENTED_EDGE ( 'NONE', *, *, #117, .T. ) ;
#157 = CARTESIAN_POINT ( 'NONE',  ( 0.0000000000000000000, 0.0000000000000000000, 0.0000000000000000000 ) ) ;
#158 = SHAPE_DEFINITION_REPRESENTATION ( #168, #166 ) ;
#159 =( NAMED_UNIT ( * ) SI_UNIT ( $, .STERADIAN. ) SOLID_ANGLE_UNIT ( ) );
#160 = PERSON_AND_ORGANIZATION_ROLE ( 'creator' ) ;
#161 = ORIENTED_EDGE ( 'NONE', *, *, #88, .T. ) ;
#162 = CC_DESIGN_APPROVAL ( #57, ( #143 ) ) ;
#163 = DATE_TIME_ROLE ( 'creation_date' ) ;
#164 = DIRECTION ( 'NONE',  ( 1.000000000000000000, 0.0000000000000000000, 0.0000000000000000000 ) ) ;
#165 = APPROVAL ( #123, 'UNSPECIFIED' ) ;
#166 = ADVANCED_BREP_SHAPE_REPRESENTATION ( 'Web Model 43888_12184', ( #125, #95 ), #112 ) ;
#167 = ORIENTED_EDGE ( 'NONE', *, *, #154, .T. ) ;
#168 = PRODUCT_DEFINITION_SHAPE ( 'NONE', 'NONE',  #7 ) ;
#169 = ADVANCED_FACE ( 'NONE', ( #36 ), #34, .T. ) ;
#170 = PERSON_AND_ORGANIZATION ( #109, #81 ) ;
#171 = CC_DESIGN_PERSON_AND_ORGANIZATION_ASSIGNMENT ( #22, #65, ( #143 ) ) ;
#172 = DIRECTION ( 'NONE',  ( 1.000000000000000000, 0.0000000000000000000, 0.0000000000000000000 ) ) ;
#173 = LOCAL_TIME ( 14, 0, 43.00000000000000000, #35 ) ;
#174 = CIRCLE ( 'NONE', #82, 2.499999999999999600 ) ;
#175 = DIRECTION ( 'NONE',  ( 0.0000000000000000000, 0.0000000000000000000, 1.000000000000000000 ) ) ;
ENDSEC;
END-ISO-10303-21;
