ISO-10303-21;
HEADER;
FILE_DESCRIPTION (( 'STEP AP203' ),
    '1' );
FILE_NAME ('Web Model 43216_43219.step',
    '2018-03-12T19:18:11',
    ( '' ),
    ( '' ),
    'SwSTEP 2.0',
    'SolidWorks 2016',
    '' );
FILE_SCHEMA (( 'CONFIG_CONTROL_DESIGN' ));
ENDSEC;

DATA;
#1 = DIRECTION ( 'NONE',  ( -1.000000000000000000, -0.0000000000000000000, -0.0000000000000000000 ) ) ;
#2 = PERSON_AND_ORGANIZATION_ROLE ( 'creator' ) ;
#3 = APPROVAL_ROLE ( '' ) ;
#4 = VECTOR ( 'NONE', #81, 1000.000000000000000 ) ;
#5 = ADVANCED_FACE ( 'NONE', ( #231 ), #141, .F. ) ;
#6 = CC_DESIGN_PERSON_AND_ORGANIZATION_ASSIGNMENT ( #179, #115, ( #122 ) ) ;
#7 = PLANE ( 'NONE',  #59 ) ;
#8 = CARTESIAN_POINT ( 'NONE',  ( -4.750000000000000000, 0.0000000000000000000, 0.0000000000000000000 ) ) ;
#9 = VECTOR ( 'NONE', #161, 1000.000000000000000 ) ;
#10 = SECURITY_CLASSIFICATION ( '', '', #92 ) ;
#11 = MANIFOLD_SOLID_BREP ( 'Boss-Extrude1', #34 ) ;
#12 = ORIENTED_EDGE ( 'NONE', *, *, #72, .F. ) ;
#13 = DIRECTION ( 'NONE',  ( 0.0000000000000000000, -0.0000000000000000000, 1.000000000000000000 ) ) ;
#14 = APPROVAL_DATE_TIME ( #127, #194 ) ;
#15 = DIRECTION ( 'NONE',  ( -1.000000000000000000, -0.0000000000000000000, -0.0000000000000000000 ) ) ;
#16 = PERSON_AND_ORGANIZATION ( #229, #91 ) ;
#17 = APPLICATION_PROTOCOL_DEFINITION ( 'international standard', 'config_control_design', 1994, #113 ) ;
#18 = APPROVAL_STATUS ( 'not_yet_approved' ) ;
#19 =( NAMED_UNIT ( * ) SI_UNIT ( $, .STERADIAN. ) SOLID_ANGLE_UNIT ( ) );
#20 = PRODUCT ( 'Web Model 43216_43219', 'Web Model 43216_43219', '', ( #150 ) ) ;
#21 = EDGE_LOOP ( 'NONE', ( #152, #12, #222, #140 ) ) ;
#22 = EDGE_LOOP ( 'NONE', ( #221, #157, #100, #76 ) ) ;
#23 = LOCAL_TIME ( 15, 18, 11.00000000000000000, #124 ) ;
#24 = DIRECTION ( 'NONE',  ( 1.000000000000000000, 0.0000000000000000000, 0.0000000000000000000 ) ) ;
#25 = CARTESIAN_POINT ( 'NONE',  ( 4.750000000000000000, 12.50000000000000000, 12.49999999999999600 ) ) ;
#26 = EDGE_CURVE ( 'NONE', #151, #134, #36, .T. ) ;
#27 = LINE ( 'NONE', #105, #4 ) ;
#28 =( GEOMETRIC_REPRESENTATION_CONTEXT ( 3 ) GLOBAL_UNCERTAINTY_ASSIGNED_CONTEXT ( ( #208 ) ) GLOBAL_UNIT_ASSIGNED_CONTEXT ( ( #166, #114, #19 ) ) REPRESENTATION_CONTEXT ( 'NONE', 'WORKASPACE' ) );
#29 = APPROVAL_PERSON_ORGANIZATION ( #230, #194, #3 ) ;
#30 = CARTESIAN_POINT ( 'NONE',  ( -4.750000000000000000, 12.50000000000000000, 12.49999999999999600 ) ) ;
#31 = ORIENTED_EDGE ( 'NONE', *, *, #160, .F. ) ;
#32 = CARTESIAN_POINT ( 'NONE',  ( -4.750000000000000000, 12.50000000000000000, -12.50000000000000000 ) ) ;
#33 = DATE_TIME_ROLE ( 'classification_date' ) ;
#34 = CLOSED_SHELL ( 'NONE', ( #37, #136, #5, #66, #153, #35 ) ) ;
#35 = ADVANCED_FACE ( 'NONE', ( #162 ), #41, .F. ) ;
#36 = LINE ( 'NONE', #224, #174 ) ;
#37 = ADVANCED_FACE ( 'NONE', ( #226 ), #195, .F. ) ;
#38 = PERSON_AND_ORGANIZATION ( #229, #91 ) ;
#39 = PERSON_AND_ORGANIZATION ( #229, #91 ) ;
#40 = LINE ( 'NONE', #77, #128 ) ;
#41 = PLANE ( 'NONE',  #178 ) ;
#42 = CALENDAR_DATE ( 2018, 12, 3 ) ;
#43 = LINE ( 'NONE', #88, #225 ) ;
#44 = FACE_OUTER_BOUND ( 'NONE', #65, .T. ) ;
#45 = APPROVAL_PERSON_ORGANIZATION ( #95, #156, #52 ) ;
#46 = DIRECTION ( 'NONE',  ( 0.0000000000000000000, -1.000000000000000000, 2.081668171172168500E-016 ) ) ;
#47 = APPROVAL_ROLE ( '' ) ;
#48 = PERSON_AND_ORGANIZATION_ROLE ( 'classification_officer' ) ;
#49 = LOCAL_TIME ( 15, 18, 11.00000000000000000, #204 ) ;
#50 = CC_DESIGN_APPROVAL ( #156, ( #10 ) ) ;
#51 = VECTOR ( 'NONE', #187, 1000.000000000000000 ) ;
#52 = APPROVAL_ROLE ( '' ) ;
#53 = CALENDAR_DATE ( 2018, 12, 3 ) ;
#54 = PERSON_AND_ORGANIZATION ( #229, #91 ) ;
#55 = CALENDAR_DATE ( 2018, 12, 3 ) ;
#56 = CARTESIAN_POINT ( 'NONE',  ( -4.750000000000000000, -12.50000000000000000, 12.50000000000000200 ) ) ;
#57 = EDGE_CURVE ( 'NONE', #106, #80, #111, .T. ) ;
#58 = APPROVAL_DATE_TIME ( #117, #171 ) ;
#59 = AXIS2_PLACEMENT_3D ( 'NONE', #163, #183, #235 ) ;
#60 = CARTESIAN_POINT ( 'NONE',  ( -4.750000000000000000, 12.50000000000000000, 12.49999999999999600 ) ) ;
#61 = ORIENTED_EDGE ( 'NONE', *, *, #26, .T. ) ;
#62 = CARTESIAN_POINT ( 'NONE',  ( 4.750000000000000000, 12.50000000000000000, 12.49999999999999600 ) ) ;
#63 = PLANE ( 'NONE',  #142 ) ;
#64 = AXIS2_PLACEMENT_3D ( 'NONE', #158, #175, #98 ) ;
#65 = EDGE_LOOP ( 'NONE', ( #129, #228, #79, #61 ) ) ;
#66 = ADVANCED_FACE ( 'NONE', ( #75 ), #7, .F. ) ;
#67 = APPLICATION_CONTEXT ( 'configuration controlled 3d designs of mechanical parts and assemblies' ) ;
#68 = ORIENTED_EDGE ( 'NONE', *, *, #214, .T. ) ;
#69 = ORIENTED_EDGE ( 'NONE', *, *, #57, .F. ) ;
#70 = AXIS2_PLACEMENT_3D ( 'NONE', #205, #89, #216 ) ;
#71 = COORDINATED_UNIVERSAL_TIME_OFFSET ( 5, 0, .BEHIND. ) ;
#72 = EDGE_CURVE ( 'NONE', #99, #80, #40, .T. ) ;
#73 = DATE_AND_TIME ( #133, #139 ) ;
#74 = LINE ( 'NONE', #154, #135 ) ;
#75 = FACE_OUTER_BOUND ( 'NONE', #21, .T. ) ;
#76 = ORIENTED_EDGE ( 'NONE', *, *, #196, .T. ) ;
#77 = CARTESIAN_POINT ( 'NONE',  ( 4.750000000000000000, 12.50000000000000000, 12.49999999999999600 ) ) ;
#78 = PRODUCT_DEFINITION ( 'UNKNOWN', '', #122, #232 ) ;
#79 = ORIENTED_EDGE ( 'NONE', *, *, #203, .F. ) ;
#80 = VERTEX_POINT ( 'NONE', #30 ) ;
#81 = DIRECTION ( 'NONE',  ( -0.0000000000000000000, 1.000000000000000000, 2.081668171172168500E-016 ) ) ;
#82 = CARTESIAN_POINT ( 'NONE',  ( 4.750000000000000000, -12.50000000000000000, 12.50000000000000200 ) ) ;
#83 = CC_DESIGN_PERSON_AND_ORGANIZATION_ASSIGNMENT ( #54, #218, ( #122 ) ) ;
#84 = DIRECTION ( 'NONE',  ( 1.000000000000000000, 0.0000000000000000000, 0.0000000000000000000 ) ) ;
#85 = ORIENTED_EDGE ( 'NONE', *, *, #160, .T. ) ;
#86 = LINE ( 'NONE', #184, #148 ) ;
#87 = EDGE_CURVE ( 'NONE', #181, #130, #27, .T. ) ;
#88 = CARTESIAN_POINT ( 'NONE',  ( 4.750000000000000000, -12.50000000000000000, -12.50000000000000500 ) ) ;
#89 = DIRECTION ( 'NONE',  ( 0.0000000000000000000, 0.0000000000000000000, 1.000000000000000000 ) ) ;
#90 = DIRECTION ( 'NONE',  ( 0.0000000000000000000, -1.000000000000000000, 2.081668171172168500E-016 ) ) ;
#91 = ORGANIZATION ( 'UNSPECIFIED', 'UNSPECIFIED', '' ) ;
#92 = SECURITY_CLASSIFICATION_LEVEL ( 'unclassified' ) ;
#93 = ORIENTED_EDGE ( 'NONE', *, *, #72, .T. ) ;
#94 = EDGE_LOOP ( 'NONE', ( #85, #137, #223, #93 ) ) ;
#95 = PERSON_AND_ORGANIZATION ( #229, #91 ) ;
#96 = EDGE_CURVE ( 'NONE', #212, #106, #126, .T. ) ;
#97 = CC_DESIGN_DATE_AND_TIME_ASSIGNMENT ( #108, #237, ( #78 ) ) ;
#98 = DIRECTION ( 'NONE',  ( 0.0000000000000000000, -1.000000000000000000, -2.081668171172168500E-016 ) ) ;
#99 = VERTEX_POINT ( 'NONE', #62 ) ;
#100 = ORIENTED_EDGE ( 'NONE', *, *, #87, .F. ) ;
#101 = DIRECTION ( 'NONE',  ( 0.0000000000000000000, 0.0000000000000000000, -1.000000000000000000 ) ) ;
#102 = VECTOR ( 'NONE', #90, 1000.000000000000000 ) ;
#103 = PRODUCT_RELATED_PRODUCT_CATEGORY ( 'detail', '', ( #20 ) ) ;
#104 = EDGE_LOOP ( 'NONE', ( #68, #144, #190, #197 ) ) ;
#105 = CARTESIAN_POINT ( 'NONE',  ( 4.750000000000000000, 12.50000000000000000, -12.50000000000000000 ) ) ;
#106 = VERTEX_POINT ( 'NONE', #32 ) ;
#107 = DIRECTION ( 'NONE',  ( -0.0000000000000000000, 1.000000000000000000, 2.081668171172168500E-016 ) ) ;
#108 = DATE_AND_TIME ( #53, #23 ) ;
#109 = CARTESIAN_POINT ( 'NONE',  ( 4.750000000000000000, 12.50000000000000000, -12.50000000000000000 ) ) ;
#110 = EDGE_CURVE ( 'NONE', #130, #99, #86, .T. ) ;
#111 = LINE ( 'NONE', #60, #125 ) ;
#112 = DIRECTION ( 'NONE',  ( -0.0000000000000000000, 1.000000000000000000, 0.0000000000000000000 ) ) ;
#113 = APPLICATION_CONTEXT ( 'configuration controlled 3d designs of mechanical parts and assemblies' ) ;
#114 =( NAMED_UNIT ( * ) PLANE_ANGLE_UNIT ( ) SI_UNIT ( $, .RADIAN. ) );
#115 = PERSON_AND_ORGANIZATION_ROLE ( 'creator' ) ;
#116 = LINE ( 'NONE', #56, #51 ) ;
#117 = DATE_AND_TIME ( #215, #165 ) ;
#118 = LOCAL_TIME ( 15, 18, 11.00000000000000000, #209 ) ;
#119 = DIRECTION ( 'NONE',  ( -1.000000000000000000, -0.0000000000000000000, -0.0000000000000000000 ) ) ;
#120 = ORIENTED_EDGE ( 'NONE', *, *, #191, .F. ) ;
#121 = EDGE_CURVE ( 'NONE', #130, #106, #199, .T. ) ;
#122 = PRODUCT_DEFINITION_FORMATION_WITH_SPECIFIED_SOURCE ( 'ANY', '', #20, .NOT_KNOWN. ) ;
#123 = ORIENTED_EDGE ( 'NONE', *, *, #96, .F. ) ;
#124 = COORDINATED_UNIVERSAL_TIME_OFFSET ( 5, 0, .BEHIND. ) ;
#125 = VECTOR ( 'NONE', #146, 1000.000000000000000 ) ;
#126 = LINE ( 'NONE', #164, #201 ) ;
#127 = DATE_AND_TIME ( #55, #118 ) ;
#128 = VECTOR ( 'NONE', #15, 1000.000000000000000 ) ;
#129 = ORIENTED_EDGE ( 'NONE', *, *, #191, .T. ) ;
#130 = VERTEX_POINT ( 'NONE', #109 ) ;
#131 = PRODUCT_DEFINITION_SHAPE ( 'NONE', 'NONE',  #78 ) ;
#132 = CARTESIAN_POINT ( 'NONE',  ( 4.750000000000000000, 12.50000000000000000, 12.49999999999999600 ) ) ;
#133 = CALENDAR_DATE ( 2018, 12, 3 ) ;
#134 = VERTEX_POINT ( 'NONE', #177 ) ;
#135 = VECTOR ( 'NONE', #219, 1000.000000000000000 ) ;
#136 = ADVANCED_FACE ( 'NONE', ( #44 ), #63, .F. ) ;
#137 = ORIENTED_EDGE ( 'NONE', *, *, #26, .F. ) ;
#138 = CC_DESIGN_DATE_AND_TIME_ASSIGNMENT ( #147, #33, ( #10 ) ) ;
#139 = LOCAL_TIME ( 15, 18, 11.00000000000000000, #170 ) ;
#140 = ORIENTED_EDGE ( 'NONE', *, *, #121, .T. ) ;
#141 = PLANE ( 'NONE',  #64 ) ;
#142 = AXIS2_PLACEMENT_3D ( 'NONE', #82, #112, #13 ) ;
#143 = SHAPE_DEFINITION_REPRESENTATION ( #131, #169 ) ;
#144 = ORIENTED_EDGE ( 'NONE', *, *, #203, .T. ) ;
#145 = CARTESIAN_POINT ( 'NONE',  ( 4.750000000000000000, 12.50000000000000000, -12.50000000000000000 ) ) ;
#146 = DIRECTION ( 'NONE',  ( -0.0000000000000000000, -0.0000000000000000000, 1.000000000000000000 ) ) ;
#147 = DATE_AND_TIME ( #42, #49 ) ;
#148 = VECTOR ( 'NONE', #198, 1000.000000000000000 ) ;
#149 = CARTESIAN_POINT ( 'NONE',  ( 4.750000000000000000, -12.50000000000000000, 12.50000000000000200 ) ) ;
#150 = MECHANICAL_CONTEXT ( 'NONE', #67, 'mechanical' ) ;
#151 = VERTEX_POINT ( 'NONE', #149 ) ;
#152 = ORIENTED_EDGE ( 'NONE', *, *, #57, .T. ) ;
#153 = ADVANCED_FACE ( 'NONE', ( #234 ), #200, .T. ) ;
#154 = CARTESIAN_POINT ( 'NONE',  ( 4.750000000000000000, -12.50000000000000000, 12.50000000000000200 ) ) ;
#155 = APPROVAL_PERSON_ORGANIZATION ( #38, #171, #47 ) ;
#156 = APPROVAL ( #186, 'UNSPECIFIED' ) ;
#157 = ORIENTED_EDGE ( 'NONE', *, *, #121, .F. ) ;
#158 = CARTESIAN_POINT ( 'NONE',  ( 4.750000000000000000, 12.50000000000000000, -12.50000000000000000 ) ) ;
#159 = PERSON_AND_ORGANIZATION ( #229, #91 ) ;
#160 = EDGE_CURVE ( 'NONE', #80, #134, #188, .T. ) ;
#161 = DIRECTION ( 'NONE',  ( -1.000000000000000000, -0.0000000000000000000, -0.0000000000000000000 ) ) ;
#162 = FACE_OUTER_BOUND ( 'NONE', #193, .T. ) ;
#163 = CARTESIAN_POINT ( 'NONE',  ( 4.750000000000000000, 12.50000000000000000, 12.49999999999999600 ) ) ;
#164 = CARTESIAN_POINT ( 'NONE',  ( -4.750000000000000000, 12.50000000000000000, -12.50000000000000000 ) ) ;
#165 = LOCAL_TIME ( 15, 18, 11.00000000000000000, #71 ) ;
#166 =( LENGTH_UNIT ( ) NAMED_UNIT ( * ) SI_UNIT ( .MILLI., .METRE. ) );
#167 = APPROVAL_STATUS ( 'not_yet_approved' ) ;
#168 = AXIS2_PLACEMENT_3D ( 'NONE', #185, #84, #213 ) ;
#169 = ADVANCED_BREP_SHAPE_REPRESENTATION ( 'Web Model 43216_43219', ( #11, #70 ), #28 ) ;
#170 = COORDINATED_UNIVERSAL_TIME_OFFSET ( 5, 0, .BEHIND. ) ;
#171 = APPROVAL ( #18, 'UNSPECIFIED' ) ;
#172 = DIRECTION ( 'NONE',  ( 0.0000000000000000000, -2.081668171172168500E-016, -1.000000000000000000 ) ) ;
#173 = APPROVAL_DATE_TIME ( #73, #156 ) ;
#174 = VECTOR ( 'NONE', #119, 1000.000000000000000 ) ;
#175 = DIRECTION ( 'NONE',  ( 0.0000000000000000000, -2.081668171172168500E-016, 1.000000000000000000 ) ) ;
#176 = CC_DESIGN_PERSON_AND_ORGANIZATION_ASSIGNMENT ( #39, #206, ( #20 ) ) ;
#177 = CARTESIAN_POINT ( 'NONE',  ( -4.750000000000000000, -12.50000000000000000, 12.50000000000000200 ) ) ;
#178 = AXIS2_PLACEMENT_3D ( 'NONE', #8, #24, #101 ) ;
#179 = PERSON_AND_ORGANIZATION ( #229, #91 ) ;
#180 = VECTOR ( 'NONE', #46, 1000.000000000000000 ) ;
#181 = VERTEX_POINT ( 'NONE', #233 ) ;
#182 = AXIS2_PLACEMENT_3D ( 'NONE', #25, #172, #192 ) ;
#183 = DIRECTION ( 'NONE',  ( 0.0000000000000000000, -1.000000000000000000, 0.0000000000000000000 ) ) ;
#184 = CARTESIAN_POINT ( 'NONE',  ( 4.750000000000000000, 12.50000000000000000, 12.49999999999999600 ) ) ;
#185 = CARTESIAN_POINT ( 'NONE',  ( 4.750000000000000000, 0.0000000000000000000, 0.0000000000000000000 ) ) ;
#186 = APPROVAL_STATUS ( 'not_yet_approved' ) ;
#187 = DIRECTION ( 'NONE',  ( 0.0000000000000000000, 0.0000000000000000000, -1.000000000000000000 ) ) ;
#188 = LINE ( 'NONE', #202, #180 ) ;
#189 = CC_DESIGN_PERSON_AND_ORGANIZATION_ASSIGNMENT ( #16, #48, ( #10 ) ) ;
#190 = ORIENTED_EDGE ( 'NONE', *, *, #87, .T. ) ;
#191 = EDGE_CURVE ( 'NONE', #134, #212, #116, .T. ) ;
#192 = DIRECTION ( 'NONE',  ( 0.0000000000000000000, 1.000000000000000000, -2.081668171172168500E-016 ) ) ;
#193 = EDGE_LOOP ( 'NONE', ( #31, #69, #123, #120 ) ) ;
#194 = APPROVAL ( #167, 'UNSPECIFIED' ) ;
#195 = PLANE ( 'NONE',  #182 ) ;
#196 = EDGE_CURVE ( 'NONE', #181, #212, #43, .T. ) ;
#197 = ORIENTED_EDGE ( 'NONE', *, *, #110, .T. ) ;
#198 = DIRECTION ( 'NONE',  ( -0.0000000000000000000, -0.0000000000000000000, 1.000000000000000000 ) ) ;
#199 = LINE ( 'NONE', #145, #9 ) ;
#200 = PLANE ( 'NONE',  #168 ) ;
#201 = VECTOR ( 'NONE', #107, 1000.000000000000000 ) ;
#202 = CARTESIAN_POINT ( 'NONE',  ( -4.750000000000000000, 12.50000000000000000, 12.49999999999999600 ) ) ;
#203 = EDGE_CURVE ( 'NONE', #151, #181, #74, .T. ) ;
#204 = COORDINATED_UNIVERSAL_TIME_OFFSET ( 5, 0, .BEHIND. ) ;
#205 = CARTESIAN_POINT ( 'NONE',  ( 0.0000000000000000000, 0.0000000000000000000, 0.0000000000000000000 ) ) ;
#206 = PERSON_AND_ORGANIZATION_ROLE ( 'design_owner' ) ;
#207 = CC_DESIGN_APPROVAL ( #194, ( #78 ) ) ;
#208 = UNCERTAINTY_MEASURE_WITH_UNIT (LENGTH_MEASURE( 1.000000000000000100E-005 ), #166, 'distance_accuracy_value', 'NONE');
#209 = COORDINATED_UNIVERSAL_TIME_OFFSET ( 5, 0, .BEHIND. ) ;
#210 = LINE ( 'NONE', #132, #102 ) ;
#211 = CC_DESIGN_APPROVAL ( #171, ( #122 ) ) ;
#212 = VERTEX_POINT ( 'NONE', #236 ) ;
#213 = DIRECTION ( 'NONE',  ( 0.0000000000000000000, 0.0000000000000000000, -1.000000000000000000 ) ) ;
#214 = EDGE_CURVE ( 'NONE', #99, #151, #210, .T. ) ;
#215 = CALENDAR_DATE ( 2018, 12, 3 ) ;
#216 = DIRECTION ( 'NONE',  ( 1.000000000000000000, 0.0000000000000000000, 0.0000000000000000000 ) ) ;
#217 = CC_DESIGN_PERSON_AND_ORGANIZATION_ASSIGNMENT ( #159, #2, ( #78 ) ) ;
#218 = PERSON_AND_ORGANIZATION_ROLE ( 'design_supplier' ) ;
#219 = DIRECTION ( 'NONE',  ( 0.0000000000000000000, 0.0000000000000000000, -1.000000000000000000 ) ) ;
#220 = APPLICATION_PROTOCOL_DEFINITION ( 'international standard', 'config_control_design', 1994, #67 ) ;
#221 = ORIENTED_EDGE ( 'NONE', *, *, #96, .T. ) ;
#222 = ORIENTED_EDGE ( 'NONE', *, *, #110, .F. ) ;
#223 = ORIENTED_EDGE ( 'NONE', *, *, #214, .F. ) ;
#224 = CARTESIAN_POINT ( 'NONE',  ( 4.750000000000000000, -12.50000000000000000, 12.50000000000000200 ) ) ;
#225 = VECTOR ( 'NONE', #1, 1000.000000000000000 ) ;
#226 = FACE_OUTER_BOUND ( 'NONE', #94, .T. ) ;
#227 = CC_DESIGN_SECURITY_CLASSIFICATION ( #10, ( #122 ) ) ;
#228 = ORIENTED_EDGE ( 'NONE', *, *, #196, .F. ) ;
#229 = PERSON ( 'UNSPECIFIED', 'UNSPECIFIED', 'UNSPECIFIED', ('UNSPECIFIED'), ('UNSPECIFIED'), ('UNSPECIFIED') ) ;
#230 = PERSON_AND_ORGANIZATION ( #229, #91 ) ;
#231 = FACE_OUTER_BOUND ( 'NONE', #22, .T. ) ;
#232 = DESIGN_CONTEXT ( 'detailed design', #113, 'design' ) ;
#233 = CARTESIAN_POINT ( 'NONE',  ( 4.750000000000000000, -12.50000000000000000, -12.50000000000000500 ) ) ;
#234 = FACE_OUTER_BOUND ( 'NONE', #104, .T. ) ;
#235 = DIRECTION ( 'NONE',  ( 0.0000000000000000000, -0.0000000000000000000, -1.000000000000000000 ) ) ;
#236 = CARTESIAN_POINT ( 'NONE',  ( -4.750000000000000000, -12.50000000000000000, -12.50000000000000500 ) ) ;
#237 = DATE_TIME_ROLE ( 'creation_date' ) ;
ENDSEC;
END-ISO-10303-21;
