ISO-10303-21;
HEADER;
FILE_DESCRIPTION (( 'STEP AP203' ),
    '1' );
FILE_NAME ('Web Model 11536_11536.step',
    '2019-12-17T13:41:24',
    ( '' ),
    ( '' ),
    'SwSTEP 2.0',
    'SolidWorks 2018',
    '' );
FILE_SCHEMA (( 'CONFIG_CONTROL_DESIGN' ));
ENDSEC;

DATA;
#1 = PRODUCT ( 'Web Model 11536_11536', 'Web Model 11536_11536', '', ( #3 ) ) ;
#2 = EDGE_LOOP ( 'NONE', ( #212, #80 ) ) ;
#3 = MECHANICAL_CONTEXT ( 'NONE', #144, 'mechanical' ) ;
#4 = ADVANCED_FACE ( 'NONE', ( #123 ), #186, .F. ) ;
#5 = CIRCLE ( 'NONE', #43, 15.00000000000000000 ) ;
#6 = CALENDAR_DATE ( 2019, 17, 12 ) ;
#7 = CC_DESIGN_SECURITY_CLASSIFICATION ( #155, ( #24 ) ) ;
#8 = FACE_OUTER_BOUND ( 'NONE', #135, .T. ) ;
#9 = ORIENTED_EDGE ( 'NONE', *, *, #31, .T. ) ;
#10 = LOCAL_TIME ( 8, 41, 24.00000000000000000, #70 ) ;
#11 = DIRECTION ( 'NONE',  ( 1.000000000000000000, 0.0000000000000000000, 0.0000000000000000000 ) ) ;
#12 = CARTESIAN_POINT ( 'NONE',  ( 7.798374466963999829, -16.00000000000000000, 0.0000000000000000000 ) ) ;
#13 = PERSON_AND_ORGANIZATION ( #54, #23 ) ;
#14 = DIRECTION ( 'NONE',  ( 0.0000000000000000000, 1.000000000000000000, 0.0000000000000000000 ) ) ;
#15 = APPROVAL ( #71, 'UNSPECIFIED' ) ;
#16 = APPROVAL_STATUS ( 'not_yet_approved' ) ;
#17 = COORDINATED_UNIVERSAL_TIME_OFFSET ( 5, 0, .BEHIND. ) ;
#18 =( NAMED_UNIT ( * ) SI_UNIT ( $, .STERADIAN. ) SOLID_ANGLE_UNIT ( ) );
#19 = COORDINATED_UNIVERSAL_TIME_OFFSET ( 5, 0, .BEHIND. ) ;
#20 = PRODUCT_RELATED_PRODUCT_CATEGORY ( 'detail', '', ( #1 ) ) ;
#21 = VERTEX_POINT ( 'NONE', #79 ) ;
#22 = AXIS2_PLACEMENT_3D ( 'NONE', #203, #11, #82 ) ;
#23 = ORGANIZATION ( 'UNSPECIFIED', 'UNSPECIFIED', '' ) ;
#24 = PRODUCT_DEFINITION_FORMATION_WITH_SPECIFIED_SOURCE ( 'ANY', '', #1, .NOT_KNOWN. ) ;
#25 = ORIENTED_EDGE ( 'NONE', *, *, #94, .F. ) ;
#26 = CARTESIAN_POINT ( 'NONE',  ( 0.0000000000000000000, 0.0000000000000000000, 0.0000000000000000000 ) ) ;
#27 = FACE_OUTER_BOUND ( 'NONE', #171, .T. ) ;
#28 = DIRECTION ( 'NONE',  ( -1.000000000000000000, 0.0000000000000000000, 0.0000000000000000000 ) ) ;
#29 = DIRECTION ( 'NONE',  ( 0.0000000000000000000, 1.000000000000000000, 0.0000000000000000000 ) ) ;
#30 = CARTESIAN_POINT ( 'NONE',  ( 157.7500000000000000, 0.0000000000000000000, 0.0000000000000000000 ) ) ;
#31 = EDGE_CURVE ( 'NONE', #217, #185, #87, .T. ) ;
#32 = ORIENTED_EDGE ( 'NONE', *, *, #68, .F. ) ;
#33 = CC_DESIGN_PERSON_AND_ORGANIZATION_ASSIGNMENT ( #111, #38, ( #1 ) ) ;
#34 = DATE_TIME_ROLE ( 'creation_date' ) ;
#35 =( NAMED_UNIT ( * ) PLANE_ANGLE_UNIT ( ) SI_UNIT ( $, .RADIAN. ) );
#36 = ORIENTED_EDGE ( 'NONE', *, *, #48, .T. ) ;
#37 = CARTESIAN_POINT ( 'NONE',  ( -0.3899187233481999915, 0.0000000000000000000, 0.0000000000000000000 ) ) ;
#38 = PERSON_AND_ORGANIZATION_ROLE ( 'design_owner' ) ;
#39 = CC_DESIGN_PERSON_AND_ORGANIZATION_ASSIGNMENT ( #92, #195, ( #24 ) ) ;
#40 = AXIS2_PLACEMENT_3D ( 'NONE', #105, #121, #14 ) ;
#41 = ORIENTED_EDGE ( 'NONE', *, *, #197, .F. ) ;
#42 = EDGE_CURVE ( 'NONE', #132, #61, #215, .T. ) ;
#43 = AXIS2_PLACEMENT_3D ( 'NONE', #99, #138, #29 ) ;
#44 = PERSON_AND_ORGANIZATION ( #54, #23 ) ;
#45 = AXIS2_PLACEMENT_3D ( 'NONE', #172, #154, #64 ) ;
#46 = DIRECTION ( 'NONE',  ( 1.000000000000000000, 0.0000000000000000000, 0.0000000000000000000 ) ) ;
#47 = ORIENTED_EDGE ( 'NONE', *, *, #94, .T. ) ;
#48 = EDGE_CURVE ( 'NONE', #74, #21, #209, .T. ) ;
#49 = CARTESIAN_POINT ( 'NONE',  ( 7.798374466963999829, 0.0000000000000000000, 0.0000000000000000000 ) ) ;
#50 = LINE ( 'NONE', #207, #148 ) ;
#51 = VECTOR ( 'NONE', #167, 1000.000000000000000 ) ;
#52 = CARTESIAN_POINT ( 'NONE',  ( 0.0000000000000000000, 16.00000000000000000, 0.0000000000000000000 ) ) ;
#53 = PLANE ( 'NONE',  #213 ) ;
#54 = PERSON ( 'UNSPECIFIED', 'UNSPECIFIED', 'UNSPECIFIED', ('UNSPECIFIED'), ('UNSPECIFIED'), ('UNSPECIFIED') ) ;
#55 = APPROVAL_ROLE ( '' ) ;
#56 = CALENDAR_DATE ( 2019, 17, 12 ) ;
#57 = PERSON_AND_ORGANIZATION_ROLE ( 'classification_officer' ) ;
#58 = ORIENTED_EDGE ( 'NONE', *, *, #63, .F. ) ;
#59 = CALENDAR_DATE ( 2019, 17, 12 ) ;
#60 = CARTESIAN_POINT ( 'NONE',  ( 7.798374466963999829, 0.0000000000000000000, 0.0000000000000000000 ) ) ;
#61 = VERTEX_POINT ( 'NONE', #112 ) ;
#62 = AXIS2_PLACEMENT_3D ( 'NONE', #117, #65, #120 ) ;
#63 = EDGE_CURVE ( 'NONE', #132, #61, #76, .T. ) ;
#64 = DIRECTION ( 'NONE',  ( 0.0000000000000000000, -1.000000000000000000, 0.0000000000000000000 ) ) ;
#65 = DIRECTION ( 'NONE',  ( -1.000000000000000000, 0.0000000000000000000, 0.0000000000000000000 ) ) ;
#66 = CC_DESIGN_PERSON_AND_ORGANIZATION_ASSIGNMENT ( #107, #57, ( #155 ) ) ;
#67 = CARTESIAN_POINT ( 'NONE',  ( 157.7500000000000000, 0.0000000000000000000, 0.0000000000000000000 ) ) ;
#68 = EDGE_CURVE ( 'NONE', #132, #61, #5, .T. ) ;
#69 = DIRECTION ( 'NONE',  ( 0.0000000000000000000, -1.000000000000000000, 0.0000000000000000000 ) ) ;
#70 = COORDINATED_UNIVERSAL_TIME_OFFSET ( 5, 0, .BEHIND. ) ;
#71 = APPROVAL_STATUS ( 'not_yet_approved' ) ;
#72 = APPROVAL ( #16, 'UNSPECIFIED' ) ;
#73 = CIRCLE ( 'NONE', #40, 16.00000000000000000 ) ;
#74 = VERTEX_POINT ( 'NONE', #52 ) ;
#75 =( GEOMETRIC_REPRESENTATION_CONTEXT ( 3 ) GLOBAL_UNCERTAINTY_ASSIGNED_CONTEXT ( ( #199 ) ) GLOBAL_UNIT_ASSIGNED_CONTEXT ( ( #89, #35, #18 ) ) REPRESENTATION_CONTEXT ( 'NONE', 'WORKASPACE' ) );
#76 = CIRCLE ( 'NONE', #173, 150.6999999999999886 ) ;
#77 = APPROVAL_DATE_TIME ( #140, #72 ) ;
#78 = DIRECTION ( 'NONE',  ( 0.0000000000000000000, 1.000000000000000000, 0.0000000000000000000 ) ) ;
#79 = CARTESIAN_POINT ( 'NONE',  ( 0.0000000000000000000, -16.00000000000000000, 0.0000000000000000000 ) ) ;
#80 = ORIENTED_EDGE ( 'NONE', *, *, #109, .T. ) ;
#81 = CARTESIAN_POINT ( 'NONE',  ( -0.3899187233481999915, 0.0000000000000000000, 0.0000000000000000000 ) ) ;
#82 = DIRECTION ( 'NONE',  ( 0.0000000000000000000, 1.000000000000000000, 0.0000000000000000000 ) ) ;
#83 = LOCAL_TIME ( 8, 41, 24.00000000000000000, #165 ) ;
#84 = ORIENTED_EDGE ( 'NONE', *, *, #191, .T. ) ;
#85 = DIRECTION ( 'NONE',  ( 1.000000000000000000, 0.0000000000000000000, 0.0000000000000000000 ) ) ;
#86 = SECURITY_CLASSIFICATION_LEVEL ( 'unclassified' ) ;
#87 = CIRCLE ( 'NONE', #116, 16.00000000000000000 ) ;
#88 = APPLICATION_PROTOCOL_DEFINITION ( 'international standard', 'config_control_design', 1994, #103 ) ;
#89 =( LENGTH_UNIT ( ) NAMED_UNIT ( * ) SI_UNIT ( .MILLI., .METRE. ) );
#90 = APPROVAL_DATE_TIME ( #104, #101 ) ;
#91 = MANIFOLD_SOLID_BREP ( 'Web Model 11536.stp', #202 ) ;
#92 = PERSON_AND_ORGANIZATION ( #54, #23 ) ;
#93 = ORIENTED_EDGE ( 'NONE', *, *, #31, .F. ) ;
#94 = EDGE_CURVE ( 'NONE', #217, #74, #96, .T. ) ;
#95 = DATE_AND_TIME ( #6, #83 ) ;
#96 = LINE ( 'NONE', #216, #51 ) ;
#97 = FACE_OUTER_BOUND ( 'NONE', #108, .T. ) ;
#98 = SPHERICAL_SURFACE ( 'NONE', #146, 150.6999999999999886 ) ;
#99 = CARTESIAN_POINT ( 'NONE',  ( 7.798374466963999829, 0.0000000000000000000, 0.0000000000000000000 ) ) ;
#100 = APPROVAL_PERSON_ORGANIZATION ( #13, #72, #55 ) ;
#101 = APPROVAL ( #161, 'UNSPECIFIED' ) ;
#102 = ORIENTED_EDGE ( 'NONE', *, *, #42, .F. ) ;
#103 = APPLICATION_CONTEXT ( 'configuration controlled 3d designs of mechanical parts and assemblies' ) ;
#104 = DATE_AND_TIME ( #56, #170 ) ;
#105 = CARTESIAN_POINT ( 'NONE',  ( 7.798374466963999829, 0.0000000000000000000, 0.0000000000000000000 ) ) ;
#106 = CC_DESIGN_DATE_AND_TIME_ASSIGNMENT ( #126, #141, ( #155 ) ) ;
#107 = PERSON_AND_ORGANIZATION ( #54, #23 ) ;
#108 = EDGE_LOOP ( 'NONE', ( #189, #32 ) ) ;
#109 = EDGE_CURVE ( 'NONE', #74, #21, #182, .T. ) ;
#110 = AXIS2_PLACEMENT_3D ( 'NONE', #37, #143, #160 ) ;
#111 = PERSON_AND_ORGANIZATION ( #54, #23 ) ;
#112 = CARTESIAN_POINT ( 'NONE',  ( 7.798374466963999829, -15.00000000000000000, 0.0000000000000000000 ) ) ;
#113 = SPHERICAL_SURFACE ( 'NONE', #45, 150.6999999999999886 ) ;
#114 = DIRECTION ( 'NONE',  ( 0.0000000000000000000, 1.000000000000000000, 0.0000000000000000000 ) ) ;
#115 = AXIS2_PLACEMENT_3D ( 'NONE', #139, #122, #192 ) ;
#116 = AXIS2_PLACEMENT_3D ( 'NONE', #134, #151, #78 ) ;
#117 = CARTESIAN_POINT ( 'NONE',  ( 0.0000000000000000000, 0.0000000000000000000, 0.0000000000000000000 ) ) ;
#118 = DIRECTION ( 'NONE',  ( -1.000000000000000000, 0.0000000000000000000, 0.0000000000000000000 ) ) ;
#119 = SHAPE_DEFINITION_REPRESENTATION ( #147, #196 ) ;
#120 = DIRECTION ( 'NONE',  ( 0.0000000000000000000, 1.000000000000000000, 0.0000000000000000000 ) ) ;
#121 = DIRECTION ( 'NONE',  ( -1.000000000000000000, 0.0000000000000000000, 0.0000000000000000000 ) ) ;
#122 = DIRECTION ( 'NONE',  ( 0.0000000000000000000, 0.0000000000000000000, 1.000000000000000000 ) ) ;
#123 = FACE_OUTER_BOUND ( 'NONE', #2, .T. ) ;
#124 = APPLICATION_PROTOCOL_DEFINITION ( 'international standard', 'config_control_design', 1994, #144 ) ;
#125 = APPROVAL_ROLE ( '' ) ;
#126 = DATE_AND_TIME ( #194, #10 ) ;
#127 = ORIENTED_EDGE ( 'NONE', *, *, #197, .T. ) ;
#128 = AXIS2_PLACEMENT_3D ( 'NONE', #81, #204, #169 ) ;
#129 = EDGE_LOOP ( 'NONE', ( #168, #102 ) ) ;
#130 = DESIGN_CONTEXT ( 'detailed design', #103, 'design' ) ;
#131 = APPROVAL_PERSON_ORGANIZATION ( #149, #15, #193 ) ;
#132 = VERTEX_POINT ( 'NONE', #188 ) ;
#133 = PRODUCT_DEFINITION ( 'UNKNOWN', '', #24, #130 ) ;
#134 = CARTESIAN_POINT ( 'NONE',  ( 7.798374466963999829, 0.0000000000000000000, 0.0000000000000000000 ) ) ;
#135 = EDGE_LOOP ( 'NONE', ( #36, #152, #93, #47 ) ) ;
#136 = DIRECTION ( 'NONE',  ( 0.0000000000000000000, 1.000000000000000000, 0.0000000000000000000 ) ) ;
#137 = FACE_OUTER_BOUND ( 'NONE', #175, .T. ) ;
#138 = DIRECTION ( 'NONE',  ( -1.000000000000000000, 0.0000000000000000000, 0.0000000000000000000 ) ) ;
#139 = CARTESIAN_POINT ( 'NONE',  ( 0.0000000000000000000, 0.0000000000000000000, 0.0000000000000000000 ) ) ;
#140 = DATE_AND_TIME ( #59, #184 ) ;
#141 = DATE_TIME_ROLE ( 'classification_date' ) ;
#142 = AXIS2_PLACEMENT_3D ( 'NONE', #26, #183, #114 ) ;
#143 = DIRECTION ( 'NONE',  ( 1.000000000000000000, 0.0000000000000000000, 0.0000000000000000000 ) ) ;
#144 = APPLICATION_CONTEXT ( 'configuration controlled 3d designs of mechanical parts and assemblies' ) ;
#145 = CYLINDRICAL_SURFACE ( 'NONE', #110, 16.00000000000000000 ) ;
#146 = AXIS2_PLACEMENT_3D ( 'NONE', #67, #208, #69 ) ;
#147 = PRODUCT_DEFINITION_SHAPE ( 'NONE', 'NONE',  #133 ) ;
#148 = VECTOR ( 'NONE', #28, 1000.000000000000000 ) ;
#149 = PERSON_AND_ORGANIZATION ( #54, #23 ) ;
#150 = COORDINATED_UNIVERSAL_TIME_OFFSET ( 5, 0, .BEHIND. ) ;
#151 = DIRECTION ( 'NONE',  ( 1.000000000000000000, 0.0000000000000000000, 0.0000000000000000000 ) ) ;
#152 = ORIENTED_EDGE ( 'NONE', *, *, #191, .F. ) ;
#153 = CALENDAR_DATE ( 2019, 17, 12 ) ;
#154 = DIRECTION ( 'NONE',  ( 0.0000000000000000000, 0.0000000000000000000, -1.000000000000000000 ) ) ;
#155 = SECURITY_CLASSIFICATION ( '', '', #86 ) ;
#156 = PERSON_AND_ORGANIZATION ( #54, #23 ) ;
#157 = EDGE_LOOP ( 'NONE', ( #127, #84, #206, #25 ) ) ;
#158 = PERSON_AND_ORGANIZATION_ROLE ( 'design_supplier' ) ;
#159 = ADVANCED_FACE ( 'NONE', ( #164 ), #219, .T. ) ;
#160 = DIRECTION ( 'NONE',  ( 0.0000000000000000000, -1.000000000000000000, 0.0000000000000000000 ) ) ;
#161 = APPROVAL_STATUS ( 'not_yet_approved' ) ;
#162 = ADVANCED_FACE ( 'NONE', ( #27, #178 ), #53, .T. ) ;
#163 = ORIENTED_EDGE ( 'NONE', *, *, #42, .T. ) ;
#164 = FACE_OUTER_BOUND ( 'NONE', #157, .T. ) ;
#165 = COORDINATED_UNIVERSAL_TIME_OFFSET ( 5, 0, .BEHIND. ) ;
#166 = DIRECTION ( 'NONE',  ( 0.0000000000000000000, 1.000000000000000000, 0.0000000000000000000 ) ) ;
#167 = DIRECTION ( 'NONE',  ( -1.000000000000000000, 0.0000000000000000000, 0.0000000000000000000 ) ) ;
#168 = ORIENTED_EDGE ( 'NONE', *, *, #68, .T. ) ;
#169 = DIRECTION ( 'NONE',  ( 0.0000000000000000000, -1.000000000000000000, 0.0000000000000000000 ) ) ;
#170 = LOCAL_TIME ( 8, 41, 24.00000000000000000, #17 ) ;
#171 = EDGE_LOOP ( 'NONE', ( #9, #41 ) ) ;
#172 = CARTESIAN_POINT ( 'NONE',  ( 157.7500000000000000, 0.0000000000000000000, 0.0000000000000000000 ) ) ;
#173 = AXIS2_PLACEMENT_3D ( 'NONE', #30, #205, #118 ) ;
#174 = CARTESIAN_POINT ( 'NONE',  ( 7.798374466963999829, 16.00000000000000000, 0.0000000000000000000 ) ) ;
#175 = EDGE_LOOP ( 'NONE', ( #163, #58 ) ) ;
#176 = ADVANCED_FACE ( 'NONE', ( #137 ), #113, .F. ) ;
#177 = APPROVAL_PERSON_ORGANIZATION ( #180, #101, #125 ) ;
#178 = FACE_BOUND ( 'NONE', #129, .T. ) ;
#179 = CC_DESIGN_PERSON_AND_ORGANIZATION_ASSIGNMENT ( #156, #158, ( #24 ) ) ;
#180 = PERSON_AND_ORGANIZATION ( #54, #23 ) ;
#181 = AXIS2_PLACEMENT_3D ( 'NONE', #60, #46, #166 ) ;
#182 = CIRCLE ( 'NONE', #62, 16.00000000000000000 ) ;
#183 = DIRECTION ( 'NONE',  ( 1.000000000000000000, 0.0000000000000000000, 0.0000000000000000000 ) ) ;
#184 = LOCAL_TIME ( 8, 41, 24.00000000000000000, #19 ) ;
#185 = VERTEX_POINT ( 'NONE', #12 ) ;
#186 = PLANE ( 'NONE',  #142 ) ;
#187 = CC_DESIGN_APPROVAL ( #72, ( #24 ) ) ;
#188 = CARTESIAN_POINT ( 'NONE',  ( 7.798374466963999829, 15.00000000000000000, 0.0000000000000000000 ) ) ;
#189 = ORIENTED_EDGE ( 'NONE', *, *, #63, .T. ) ;
#190 = PERSON_AND_ORGANIZATION_ROLE ( 'creator' ) ;
#191 = EDGE_CURVE ( 'NONE', #185, #21, #50, .T. ) ;
#192 = DIRECTION ( 'NONE',  ( 1.000000000000000000, 0.0000000000000000000, 0.0000000000000000000 ) ) ;
#193 = APPROVAL_ROLE ( '' ) ;
#194 = CALENDAR_DATE ( 2019, 17, 12 ) ;
#195 = PERSON_AND_ORGANIZATION_ROLE ( 'creator' ) ;
#196 = ADVANCED_BREP_SHAPE_REPRESENTATION ( 'Web Model 11536_11536', ( #91, #115 ), #75 ) ;
#197 = EDGE_CURVE ( 'NONE', #217, #185, #73, .T. ) ;
#198 = CC_DESIGN_DATE_AND_TIME_ASSIGNMENT ( #218, #34, ( #133 ) ) ;
#199 = UNCERTAINTY_MEASURE_WITH_UNIT (LENGTH_MEASURE( 1.000000000000000082E-05 ), #89, 'distance_accuracy_value', 'NONE');
#200 = LOCAL_TIME ( 8, 41, 24.00000000000000000, #150 ) ;
#201 = CC_DESIGN_PERSON_AND_ORGANIZATION_ASSIGNMENT ( #44, #190, ( #133 ) ) ;
#202 = CLOSED_SHELL ( 'NONE', ( #176, #220, #162, #159, #210, #4 ) ) ;
#203 = CARTESIAN_POINT ( 'NONE',  ( 0.0000000000000000000, 0.0000000000000000000, 0.0000000000000000000 ) ) ;
#204 = DIRECTION ( 'NONE',  ( 1.000000000000000000, 0.0000000000000000000, 0.0000000000000000000 ) ) ;
#205 = DIRECTION ( 'NONE',  ( 0.0000000000000000000, 0.0000000000000000000, 1.000000000000000000 ) ) ;
#206 = ORIENTED_EDGE ( 'NONE', *, *, #109, .F. ) ;
#207 = CARTESIAN_POINT ( 'NONE',  ( 7.798374466963999829, -16.00000000000000000, 0.0000000000000000000 ) ) ;
#208 = DIRECTION ( 'NONE',  ( 0.0000000000000000000, 0.0000000000000000000, -1.000000000000000000 ) ) ;
#209 = CIRCLE ( 'NONE', #22, 16.00000000000000000 ) ;
#210 = ADVANCED_FACE ( 'NONE', ( #8 ), #145, .T. ) ;
#211 = CC_DESIGN_APPROVAL ( #101, ( #133 ) ) ;
#212 = ORIENTED_EDGE ( 'NONE', *, *, #48, .F. ) ;
#213 = AXIS2_PLACEMENT_3D ( 'NONE', #49, #85, #136 ) ;
#214 = APPROVAL_DATE_TIME ( #95, #15 ) ;
#215 = CIRCLE ( 'NONE', #181, 15.00000000000000000 ) ;
#216 = CARTESIAN_POINT ( 'NONE',  ( 7.798374466963999829, 16.00000000000000000, 0.0000000000000000000 ) ) ;
#217 = VERTEX_POINT ( 'NONE', #174 ) ;
#218 = DATE_AND_TIME ( #153, #200 ) ;
#219 = CYLINDRICAL_SURFACE ( 'NONE', #128, 16.00000000000000000 ) ;
#220 = ADVANCED_FACE ( 'NONE', ( #97 ), #98, .F. ) ;
#221 = CC_DESIGN_APPROVAL ( #15, ( #155 ) ) ;
ENDSEC;
END-ISO-10303-21;
