ISO-10303-21;
HEADER;
FILE_DESCRIPTION (( 'STEP AP203' ),
    '1' );
FILE_NAME ('Web Model 19311_22590.step',
    '2022-06-07T14:21:01',
    ( 'WC' ),
    ( 'Windows Central' ),
    'SwSTEP 2.0',
    'SolidWorks 2021',
    '' );
FILE_SCHEMA (( 'CONFIG_CONTROL_DESIGN' ));
ENDSEC;

DATA;
#1 = EDGE_LOOP ( 'NONE', ( #414, #209 ) ) ;
#2 = DIRECTION ( 'NONE',  ( -0.000000000000000000, -0.000000000000000000, -1.000000000000000000 ) ) ;
#3 = SECURITY_CLASSIFICATION ( '', '', #148 ) ;
#4 = EDGE_CURVE ( 'NONE', #256, #283, #160, .T. ) ;
#5 = AXIS2_PLACEMENT_3D ( 'NONE', #16, #73, #140 ) ;
#6 = DIRECTION ( 'NONE',  ( 1.000000000000000000, 0.000000000000000000, 0.000000000000000000 ) ) ;
#7 = DIRECTION ( 'NONE',  ( 0.000000000000000000, 0.000000000000000000, 1.000000000000000000 ) ) ;
#8 = ADVANCED_FACE ( 'NONE', ( #307 ), #22, .T. ) ;
#9 = DIRECTION ( 'NONE',  ( -1.000000000000000000, 0.000000000000000000, 0.000000000000000000 ) ) ;
#10 = CARTESIAN_POINT ( 'NONE',  ( -106.3599999999999994, 0.000000000000000000, 0.000000000000000000 ) ) ;
#11 = LOCAL_TIME ( 10, 21, 1.000000000000000000, #396 ) ;
#12 = DIRECTION ( 'NONE',  ( -0.000000000000000000, -0.000000000000000000, -1.000000000000000000 ) ) ;
#13 = DIRECTION ( 'NONE',  ( 1.000000000000000000, 0.000000000000000000, 0.000000000000000000 ) ) ;
#14 = CIRCLE ( 'NONE', #68, 1.755000000000006555 ) ;
#15 = PLANE ( 'NONE',  #335 ) ;
#16 = CARTESIAN_POINT ( 'NONE',  ( 0.000000000000000000, 0.000000000000000000, 9.529999999999999361 ) ) ;
#17 = DIRECTION ( 'NONE',  ( 1.000000000000000000, 0.000000000000000000, -0.000000000000000000 ) ) ;
#18 = APPROVAL_STATUS ( 'not_yet_approved' ) ;
#19 = DATE_AND_TIME ( #281, #135 ) ;
#20 = EDGE_CURVE ( 'NONE', #146, #183, #111, .T. ) ;
#21 = VECTOR ( 'NONE', #294, 1000.000000000000000 ) ;
#22 = PLANE ( 'NONE',  #392 ) ;
#23 = ADVANCED_FACE ( 'NONE', ( #369 ), #360, .T. ) ;
#24 = PERSON_AND_ORGANIZATION_ROLE ( 'design_supplier' ) ;
#25 = ORIENTED_EDGE ( 'NONE', *, *, #4, .T. ) ;
#26 = APPROVAL_PERSON_ORGANIZATION ( #304, #343, #276 ) ;
#27 = ORIENTED_EDGE ( 'NONE', *, *, #403, .F. ) ;
#28 = DIRECTION ( 'NONE',  ( 0.000000000000000000, 0.000000000000000000, 1.000000000000000000 ) ) ;
#29 = EDGE_LOOP ( 'NONE', ( #164, #337 ) ) ;
#30 = DIRECTION ( 'NONE',  ( 1.000000000000000000, 0.000000000000000000, 0.000000000000000000 ) ) ;
#31 = LINE ( 'NONE', #409, #372 ) ;
#32 = LOCAL_TIME ( 10, 21, 1.000000000000000000, #50 ) ;
#33 = ORIENTED_EDGE ( 'NONE', *, *, #227, .F. ) ;
#34 = CARTESIAN_POINT ( 'NONE',  ( 0.000000000000000000, 0.000000000000000000, -0.002000000000000000042 ) ) ;
#35 = CARTESIAN_POINT ( 'NONE',  ( 108.1150000000000091, 2.149255132503602215E-16, 9.529999999999999361 ) ) ;
#36 = CC_DESIGN_PERSON_AND_ORGANIZATION_ASSIGNMENT ( #330, #24, ( #150 ) ) ;
#37 = DIRECTION ( 'NONE',  ( -1.000000000000000000, 0.000000000000000000, 0.000000000000000000 ) ) ;
#38 = APPROVAL_PERSON_ORGANIZATION ( #242, #120, #77 ) ;
#39 = ORIENTED_EDGE ( 'NONE', *, *, #80, .F. ) ;
#40 = FACE_OUTER_BOUND ( 'NONE', #280, .T. ) ;
#41 = DIRECTION ( 'NONE',  ( 0.000000000000000000, 0.000000000000000000, 1.000000000000000000 ) ) ;
#42 = AXIS2_PLACEMENT_3D ( 'NONE', #382, #2, #344 ) ;
#43 = DIRECTION ( 'NONE',  ( 1.000000000000000000, 0.000000000000000000, 0.000000000000000000 ) ) ;
#44 = CARTESIAN_POINT ( 'NONE',  ( -108.1150000000000091, 0.000000000000000000, 9.529999999999999361 ) ) ;
#45 = ADVANCED_BREP_SHAPE_REPRESENTATION ( 'Web Model 19311_22590', ( #163, #156 ), #334 ) ;
#46 = CARTESIAN_POINT ( 'NONE',  ( 108.1150000000000091, 2.149255132503602215E-16, 0.000000000000000000 ) ) ;
#47 = DIRECTION ( 'NONE',  ( -0.000000000000000000, -0.000000000000000000, -1.000000000000000000 ) ) ;
#48 = DATE_AND_TIME ( #107, #11 ) ;
#49 = COORDINATED_UNIVERSAL_TIME_OFFSET ( 5, 0, .BEHIND. ) ;
#50 = COORDINATED_UNIVERSAL_TIME_OFFSET ( 5, 0, .BEHIND. ) ;
#51 = COORDINATED_UNIVERSAL_TIME_OFFSET ( 5, 0, .BEHIND. ) ;
#52 = ORIENTED_EDGE ( 'NONE', *, *, #96, .F. ) ;
#53 = VERTEX_POINT ( 'NONE', #106 ) ;
#54 = ORIENTED_EDGE ( 'NONE', *, *, #125, .T. ) ;
#55 = VERTEX_POINT ( 'NONE', #393 ) ;
#56 = CARTESIAN_POINT ( 'NONE',  ( 0.000000000000000000, 0.000000000000000000, 0.000000000000000000 ) ) ;
#57 = EDGE_LOOP ( 'NONE', ( #52, #395 ) ) ;
#58 = CIRCLE ( 'NONE', #296, 111.1250000000000000 ) ;
#59 = DIRECTION ( 'NONE',  ( 1.000000000000000000, 0.000000000000000000, -0.000000000000000000 ) ) ;
#60 = EDGE_CURVE ( 'NONE', #187, #375, #317, .T. ) ;
#61 = LINE ( 'NONE', #186, #21 ) ;
#62 = DIRECTION ( 'NONE',  ( -0.000000000000000000, -0.000000000000000000, -1.000000000000000000 ) ) ;
#63 = EDGE_CURVE ( 'NONE', #282, #55, #240, .T. ) ;
#64 = DIRECTION ( 'NONE',  ( -1.000000000000000000, 0.000000000000000000, 0.000000000000000000 ) ) ;
#65 = ORIENTED_EDGE ( 'NONE', *, *, #93, .T. ) ;
#66 = DIRECTION ( 'NONE',  ( 0.000000000000000000, 0.000000000000000000, 1.000000000000000000 ) ) ;
#67 = CARTESIAN_POINT ( 'NONE',  ( 106.3599999999999994, 0.000000000000000000, 9.529999999999999361 ) ) ;
#68 = AXIS2_PLACEMENT_3D ( 'NONE', #89, #102, #6 ) ;
#69 = EDGE_CURVE ( 'NONE', #404, #184, #58, .T. ) ;
#70 = PERSON ( 'UNSPECIFIED', 'UNSPECIFIED', 'UNSPECIFIED', ('UNSPECIFIED'), ('UNSPECIFIED'), ('UNSPECIFIED') ) ;
#71 = DIRECTION ( 'NONE',  ( -0.000000000000000000, -0.000000000000000000, -1.000000000000000000 ) ) ;
#72 = DIRECTION ( 'NONE',  ( 1.000000000000000000, 0.000000000000000000, -0.000000000000000000 ) ) ;
#73 = DIRECTION ( 'NONE',  ( 0.000000000000000000, 0.000000000000000000, 1.000000000000000000 ) ) ;
#74 = DIRECTION ( 'NONE',  ( 0.000000000000000000, 0.000000000000000000, 1.000000000000000000 ) ) ;
#75 = APPROVAL_STATUS ( 'not_yet_approved' ) ;
#76 = CARTESIAN_POINT ( 'NONE',  ( 108.1150000000000091, 2.149255132503607638E-16, 9.529999999999999361 ) ) ;
#77 = APPROVAL_ROLE ( '' ) ;
#78 = PERSON_AND_ORGANIZATION ( #70, #211 ) ;
#79 = APPROVAL_DATE_TIME ( #112, #120 ) ;
#80 = EDGE_CURVE ( 'NONE', #55, #282, #295, .T. ) ;
#81 = CARTESIAN_POINT ( 'NONE',  ( 0.000000000000000000, 0.000000000000000000, 9.529999999999999361 ) ) ;
#82 = LINE ( 'NONE', #76, #278 ) ;
#83 = EDGE_LOOP ( 'NONE', ( #121, #54, #128, #33 ) ) ;
#84 = AXIS2_PLACEMENT_3D ( 'NONE', #126, #217, #64 ) ;
#85 = FACE_BOUND ( 'NONE', #57, .T. ) ;
#86 = PLANE ( 'NONE',  #124 ) ;
#87 = CIRCLE ( 'NONE', #161, 1.755000000000006555 ) ;
#88 = CIRCLE ( 'NONE', #345, 1.755000000000006555 ) ;
#89 = CARTESIAN_POINT ( 'NONE',  ( 106.3599999999999994, 0.000000000000000000, 0.000000000000000000 ) ) ;
#90 = ORIENTED_EDGE ( 'NONE', *, *, #4, .F. ) ;
#91 = FACE_BOUND ( 'NONE', #216, .T. ) ;
#92 = EDGE_CURVE ( 'NONE', #53, #172, #400, .T. ) ;
#93 = EDGE_CURVE ( 'NONE', #177, #104, #87, .T. ) ;
#94 = EDGE_LOOP ( 'NONE', ( #205, #151, #407, #336 ) ) ;
#95 = DIRECTION ( 'NONE',  ( -1.000000000000000000, 0.000000000000000000, 0.000000000000000000 ) ) ;
#96 = EDGE_CURVE ( 'NONE', #310, #262, #88, .T. ) ;
#97 = CLOSED_SHELL ( 'NONE', ( #231, #173, #368, #23, #193, #185, #323, #267, #145, #8, #244, #332, #215 ) ) ;
#98 = CYLINDRICAL_SURFACE ( 'NONE', #182, 101.5999999999999943 ) ;
#99 = DIRECTION ( 'NONE',  ( -1.000000000000000000, 0.000000000000000000, 0.000000000000000000 ) ) ;
#100 = VECTOR ( 'NONE', #12, 1000.000000000000000 ) ;
#101 = DIRECTION ( 'NONE',  ( 0.000000000000000000, 0.000000000000000000, 1.000000000000000000 ) ) ;
#102 = DIRECTION ( 'NONE',  ( 0.000000000000000000, 0.000000000000000000, 1.000000000000000000 ) ) ;
#103 = CIRCLE ( 'NONE', #380, 1.755000000000006555 ) ;
#104 = VERTEX_POINT ( 'NONE', #354 ) ;
#105 = DIRECTION ( 'NONE',  ( 1.000000000000000000, 0.000000000000000000, 0.000000000000000000 ) ) ;
#106 = CARTESIAN_POINT ( 'NONE',  ( -111.1250000000000000, 0.000000000000000000, -0.002000000000000000042 ) ) ;
#107 = CALENDAR_DATE ( 2022, 7, 6 ) ;
#108 = CC_DESIGN_DATE_AND_TIME_ASSIGNMENT ( #19, #152, ( #3 ) ) ;
#109 = APPROVAL_PERSON_ORGANIZATION ( #78, #181, #338 ) ;
#110 = CARTESIAN_POINT ( 'NONE',  ( 0.000000000000000000, 0.000000000000000000, 9.529999999999999361 ) ) ;
#111 = CIRCLE ( 'NONE', #212, 101.5999999999999943 ) ;
#112 = DATE_AND_TIME ( #402, #32 ) ;
#113 = ORIENTED_EDGE ( 'NONE', *, *, #127, .T. ) ;
#114 = SHAPE_DEFINITION_REPRESENTATION ( #236, #45 ) ;
#115 = ORIENTED_EDGE ( 'NONE', *, *, #247, .T. ) ;
#116 = ORIENTED_EDGE ( 'NONE', *, *, #92, .F. ) ;
#117 = EDGE_LOOP ( 'NONE', ( #285, #25 ) ) ;
#118 = EDGE_LOOP ( 'NONE', ( #232, #350, #149, #373 ) ) ;
#119 = CARTESIAN_POINT ( 'NONE',  ( -108.1150000000000091, 0.000000000000000000, 9.529999999999999361 ) ) ;
#120 = APPROVAL ( #363, 'UNSPECIFIED' ) ;
#121 = ORIENTED_EDGE ( 'NONE', *, *, #292, .T. ) ;
#122 = DIRECTION ( 'NONE',  ( 1.000000000000000000, 0.000000000000000000, -0.000000000000000000 ) ) ;
#123 = ORIENTED_EDGE ( 'NONE', *, *, #359, .F. ) ;
#124 = AXIS2_PLACEMENT_3D ( 'NONE', #56, #28, #288 ) ;
#125 = EDGE_CURVE ( 'NONE', #177, #256, #82, .T. ) ;
#126 = CARTESIAN_POINT ( 'NONE',  ( 106.3599999999999994, 0.000000000000000000, 9.529999999999999361 ) ) ;
#127 = EDGE_CURVE ( 'NONE', #262, #310, #103, .T. ) ;
#128 = ORIENTED_EDGE ( 'NONE', *, *, #253, .F. ) ;
#129 = CARTESIAN_POINT ( 'NONE',  ( 111.1250000000000000, 1.360888755552496385E-14, -0.002000000000000000042 ) ) ;
#130 = FACE_OUTER_BOUND ( 'NONE', #118, .T. ) ;
#131 = CC_DESIGN_APPROVAL ( #181, ( #3 ) ) ;
#132 = DIRECTION ( 'NONE',  ( -0.000000000000000000, -0.000000000000000000, -1.000000000000000000 ) ) ;
#133 = DIRECTION ( 'NONE',  ( 0.000000000000000000, 0.000000000000000000, 1.000000000000000000 ) ) ;
#134 = DIRECTION ( 'NONE',  ( -0.000000000000000000, -0.000000000000000000, -1.000000000000000000 ) ) ;
#135 = LOCAL_TIME ( 10, 21, 1.000000000000000000, #49 ) ;
#136 = DIRECTION ( 'NONE',  ( 1.000000000000000000, 0.000000000000000000, 0.000000000000000000 ) ) ;
#137 = CARTESIAN_POINT ( 'NONE',  ( 0.000000000000000000, 0.000000000000000000, 0.000000000000000000 ) ) ;
#138 = AXIS2_PLACEMENT_3D ( 'NONE', #397, #272, #175 ) ;
#139 = AXIS2_PLACEMENT_3D ( 'NONE', #376, #346, #122 ) ;
#140 = DIRECTION ( 'NONE',  ( 1.000000000000000000, 0.000000000000000000, 0.000000000000000000 ) ) ;
#141 = APPROVAL_DATE_TIME ( #206, #343 ) ;
#142 = DIRECTION ( 'NONE',  ( 1.000000000000000000, 0.000000000000000000, 0.000000000000000000 ) ) ;
#143 = DIRECTION ( 'NONE',  ( 1.000000000000000000, 0.000000000000000000, 0.000000000000000000 ) ) ;
#144 = AXIS2_PLACEMENT_3D ( 'NONE', #374, #162, #348 ) ;
#145 = ADVANCED_FACE ( 'NONE', ( #320 ), #188, .F. ) ;
#146 = VERTEX_POINT ( 'NONE', #349 ) ;
#147 = CC_DESIGN_PERSON_AND_ORGANIZATION_ASSIGNMENT ( #207, #331, ( #204 ) ) ;
#148 = SECURITY_CLASSIFICATION_LEVEL ( 'unclassified' ) ;
#149 = ORIENTED_EDGE ( 'NONE', *, *, #157, .T. ) ;
#150 = PRODUCT_DEFINITION_FORMATION_WITH_SPECIFIED_SOURCE ( 'ANY', '', #204, .NOT_KNOWN. ) ;
#151 = ORIENTED_EDGE ( 'NONE', *, *, #60, .T. ) ;
#152 = DATE_TIME_ROLE ( 'classification_date' ) ;
#153 = CARTESIAN_POINT ( 'NONE',  ( 0.000000000000000000, 0.000000000000000000, 9.529999999999999361 ) ) ;
#154 = CARTESIAN_POINT ( 'NONE',  ( 101.5999999999999943, 1.244241147933710746E-14, 0.000000000000000000 ) ) ;
#155 = ORIENTED_EDGE ( 'NONE', *, *, #157, .F. ) ;
#156 = AXIS2_PLACEMENT_3D ( 'NONE', #210, #74, #142 ) ;
#157 = EDGE_CURVE ( 'NONE', #404, #53, #61, .T. ) ;
#158 = CYLINDRICAL_SURFACE ( 'NONE', #318, 1.755000000000006555 ) ;
#159 = ORIENTED_EDGE ( 'NONE', *, *, #297, .T. ) ;
#160 = CIRCLE ( 'NONE', #385, 1.755000000000006555 ) ;
#161 = AXIS2_PLACEMENT_3D ( 'NONE', #299, #7, #264 ) ;
#162 = DIRECTION ( 'NONE',  ( -0.000000000000000000, -0.000000000000000000, -1.000000000000000000 ) ) ;
#163 = MANIFOLD_SOLID_BREP ( 'Boss-Extrude2', #97 ) ;
#164 = ORIENTED_EDGE ( 'NONE', *, *, #63, .T. ) ;
#165 = CARTESIAN_POINT ( 'NONE',  ( -106.3599999999999994, 0.000000000000000000, 9.529999999999999361 ) ) ;
#166 = ORIENTED_EDGE ( 'NONE', *, *, #180, .F. ) ;
#167 = AXIS2_PLACEMENT_3D ( 'NONE', #10, #41, #200 ) ;
#168 = LINE ( 'NONE', #322, #355 ) ;
#169 = AXIS2_PLACEMENT_3D ( 'NONE', #34, #223, #59 ) ;
#170 = CARTESIAN_POINT ( 'NONE',  ( -106.3599999999999994, 0.000000000000000000, 9.529999999999999361 ) ) ;
#171 = LINE ( 'NONE', #301, #100 ) ;
#172 = VERTEX_POINT ( 'NONE', #129 ) ;
#173 = ADVANCED_FACE ( 'NONE', ( #224 ), #312, .F. ) ;
#174 = CARTESIAN_POINT ( 'NONE',  ( -111.1250000000000000, 0.000000000000000000, 9.529999999999999361 ) ) ;
#175 = DIRECTION ( 'NONE',  ( 1.000000000000000000, 0.000000000000000000, 0.000000000000000000 ) ) ;
#176 = APPLICATION_PROTOCOL_DEFINITION ( 'international standard', 'config_control_design', 1994, #203 ) ;
#177 = VERTEX_POINT ( 'NONE', #35 ) ;
#178 = MECHANICAL_CONTEXT ( 'NONE', #203, 'mechanical' ) ;
#179 = DATE_AND_TIME ( #249, #314 ) ;
#180 = EDGE_CURVE ( 'NONE', #172, #53, #324, .T. ) ;
#181 = APPROVAL ( #75, 'UNSPECIFIED' ) ;
#182 = AXIS2_PLACEMENT_3D ( 'NONE', #199, #198, #9 ) ;
#183 = VERTEX_POINT ( 'NONE', #154 ) ;
#184 = VERTEX_POINT ( 'NONE', #311 ) ;
#185 = ADVANCED_FACE ( 'NONE', ( #130 ), #191, .T. ) ;
#186 = CARTESIAN_POINT ( 'NONE',  ( -111.1250000000000000, 0.000000000000000000, 9.529999999999999361 ) ) ;
#187 = VERTEX_POINT ( 'NONE', #221 ) ;
#188 = CYLINDRICAL_SURFACE ( 'NONE', #84, 1.755000000000006555 ) ;
#189 = EDGE_CURVE ( 'NONE', #310, #282, #313, .T. ) ;
#190 = ORIENTED_EDGE ( 'NONE', *, *, #20, .F. ) ;
#191 = CYLINDRICAL_SURFACE ( 'NONE', #144, 111.1250000000000000 ) ;
#192 = ORIENTED_EDGE ( 'NONE', *, *, #180, .T. ) ;
#193 = ADVANCED_FACE ( 'NONE', ( #85, #284, #91, #340 ), #316, .T. ) ;
#194 = CARTESIAN_POINT ( 'NONE',  ( 106.3599999999999994, 0.000000000000000000, 9.529999999999999361 ) ) ;
#195 = CIRCLE ( 'NONE', #213, 111.1250000000000000 ) ;
#196 = FACE_OUTER_BOUND ( 'NONE', #29, .T. ) ;
#197 = CC_DESIGN_DATE_AND_TIME_ASSIGNMENT ( #48, #366, ( #257 ) ) ;
#198 = DIRECTION ( 'NONE',  ( -0.000000000000000000, -0.000000000000000000, -1.000000000000000000 ) ) ;
#199 = CARTESIAN_POINT ( 'NONE',  ( 0.000000000000000000, 0.000000000000000000, 9.529999999999999361 ) ) ;
#200 = DIRECTION ( 'NONE',  ( 1.000000000000000000, 0.000000000000000000, 0.000000000000000000 ) ) ;
#201 = CYLINDRICAL_SURFACE ( 'NONE', #289, 1.755000000000006555 ) ;
#202 = CYLINDRICAL_SURFACE ( 'NONE', #390, 101.5999999999999943 ) ;
#203 = APPLICATION_CONTEXT ( 'configuration controlled 3d designs of mechanical parts and assemblies' ) ;
#204 = PRODUCT ( 'Web Model 19311_22590', 'Web Model 19311_22590', '', ( #178 ) ) ;
#205 = ORIENTED_EDGE ( 'NONE', *, *, #406, .F. ) ;
#206 = DATE_AND_TIME ( #274, #243 ) ;
#207 = PERSON_AND_ORGANIZATION ( #70, #211 ) ;
#208 = PERSON_AND_ORGANIZATION_ROLE ( 'creator' ) ;
#209 = ORIENTED_EDGE ( 'NONE', *, *, #93, .F. ) ;
#210 = CARTESIAN_POINT ( 'NONE',  ( 0.000000000000000000, 0.000000000000000000, 0.000000000000000000 ) ) ;
#211 = ORGANIZATION ( 'UNSPECIFIED', 'UNSPECIFIED', '' ) ;
#212 = AXIS2_PLACEMENT_3D ( 'NONE', #302, #279, #13 ) ;
#213 = AXIS2_PLACEMENT_3D ( 'NONE', #153, #219, #412 ) ;
#214 = EDGE_LOOP ( 'NONE', ( #222, #333, #287, #315 ) ) ;
#215 = ADVANCED_FACE ( 'NONE', ( #258 ), #408, .F. ) ;
#216 = EDGE_LOOP ( 'NONE', ( #405, #410 ) ) ;
#217 = DIRECTION ( 'NONE',  ( -0.000000000000000000, -0.000000000000000000, -1.000000000000000000 ) ) ;
#218 = ORIENTED_EDGE ( 'NONE', *, *, #227, .T. ) ;
#219 = DIRECTION ( 'NONE',  ( 0.000000000000000000, 0.000000000000000000, 1.000000000000000000 ) ) ;
#220 = VECTOR ( 'NONE', #233, 1000.000000000000000 ) ;
#221 = CARTESIAN_POINT ( 'NONE',  ( 101.5999999999999943, 1.244241147933710746E-14, 9.529999999999999361 ) ) ;
#222 = ORIENTED_EDGE ( 'NONE', *, *, #96, .T. ) ;
#223 = DIRECTION ( 'NONE',  ( 0.000000000000000000, 0.000000000000000000, 1.000000000000000000 ) ) ;
#224 = FACE_OUTER_BOUND ( 'NONE', #214, .T. ) ;
#225 = CARTESIAN_POINT ( 'NONE',  ( 0.000000000000000000, 0.000000000000000000, 9.529999999999999361 ) ) ;
#226 = FACE_OUTER_BOUND ( 'NONE', #339, .T. ) ;
#227 = EDGE_CURVE ( 'NONE', #104, #283, #31, .T. ) ;
#228 = DIRECTION ( 'NONE',  ( 1.000000000000000000, 0.000000000000000000, 0.000000000000000000 ) ) ;
#229 = CARTESIAN_POINT ( 'NONE',  ( -101.5999999999999943, 0.000000000000000000, 9.529999999999999361 ) ) ;
#230 = AXIS2_PLACEMENT_3D ( 'NONE', #225, #388, #43 ) ;
#231 = ADVANCED_FACE ( 'NONE', ( #254 ), #158, .F. ) ;
#232 = ORIENTED_EDGE ( 'NONE', *, *, #297, .F. ) ;
#233 = DIRECTION ( 'NONE',  ( -0.000000000000000000, -0.000000000000000000, -1.000000000000000000 ) ) ;
#234 = DESIGN_CONTEXT ( 'detailed design', #238, 'design' ) ;
#235 = PERSON_AND_ORGANIZATION ( #70, #211 ) ;
#236 = PRODUCT_DEFINITION_SHAPE ( 'NONE', 'NONE',  #257 ) ;
#237 = DIRECTION ( 'NONE',  ( 0.000000000000000000, 0.000000000000000000, 1.000000000000000000 ) ) ;
#238 = APPLICATION_CONTEXT ( 'configuration controlled 3d designs of mechanical parts and assemblies' ) ;
#239 = PERSON_AND_ORGANIZATION_ROLE ( 'creator' ) ;
#240 = CIRCLE ( 'NONE', #138, 1.755000000000006555 ) ;
#241 = ORIENTED_EDGE ( 'NONE', *, *, #365, .T. ) ;
#242 = PERSON_AND_ORGANIZATION ( #70, #211 ) ;
#243 = LOCAL_TIME ( 10, 21, 1.000000000000000000, #361 ) ;
#244 = ADVANCED_FACE ( 'NONE', ( #196 ), #86, .T. ) ;
#245 = ORIENTED_EDGE ( 'NONE', *, *, #247, .F. ) ;
#246 = PERSON_AND_ORGANIZATION_ROLE ( 'classification_officer' ) ;
#247 = EDGE_CURVE ( 'NONE', #184, #404, #195, .T. ) ;
#248 = EDGE_LOOP ( 'NONE', ( #245, #159, #192, #155 ) ) ;
#249 = CALENDAR_DATE ( 2022, 7, 6 ) ;
#250 = ORIENTED_EDGE ( 'NONE', *, *, #125, .F. ) ;
#251 = DIRECTION ( 'NONE',  ( 0.000000000000000000, 0.000000000000000000, 1.000000000000000000 ) ) ;
#252 = EDGE_LOOP ( 'NONE', ( #250, #65, #218, #90 ) ) ;
#253 = EDGE_CURVE ( 'NONE', #283, #256, #14, .T. ) ;
#254 = FACE_OUTER_BOUND ( 'NONE', #83, .T. ) ;
#255 = AXIS2_PLACEMENT_3D ( 'NONE', #259, #415, #30 ) ;
#256 = VERTEX_POINT ( 'NONE', #46 ) ;
#257 = PRODUCT_DEFINITION ( 'UNKNOWN', '', #150, #234 ) ;
#258 = FACE_OUTER_BOUND ( 'NONE', #290, .T. ) ;
#259 = CARTESIAN_POINT ( 'NONE',  ( 0.000000000000000000, 0.000000000000000000, -0.002000000000000000042 ) ) ;
#260 = CC_DESIGN_PERSON_AND_ORGANIZATION_ASSIGNMENT ( #367, #246, ( #3 ) ) ;
#261 = AXIS2_PLACEMENT_3D ( 'NONE', #81, #47, #269 ) ;
#262 = VERTEX_POINT ( 'NONE', #391 ) ;
#263 = CARTESIAN_POINT ( 'NONE',  ( 0.000000000000000000, 0.000000000000000000, 0.000000000000000000 ) ) ;
#264 = DIRECTION ( 'NONE',  ( 1.000000000000000000, 0.000000000000000000, 0.000000000000000000 ) ) ;
#265 = CC_DESIGN_APPROVAL ( #120, ( #150 ) ) ;
#266 = DIRECTION ( 'NONE',  ( 1.000000000000000000, 0.000000000000000000, 0.000000000000000000 ) ) ;
#267 = ADVANCED_FACE ( 'NONE', ( #358 ), #201, .F. ) ;
#268 = CARTESIAN_POINT ( 'NONE',  ( 0.000000000000000000, 0.000000000000000000, -0.002000000000000000042 ) ) ;
#269 = DIRECTION ( 'NONE',  ( -1.000000000000000000, 0.000000000000000000, 0.000000000000000000 ) ) ;
#270 = LINE ( 'NONE', #386, #220 ) ;
#271 = AXIS2_PLACEMENT_3D ( 'NONE', #67, #66, #266 ) ;
#272 = DIRECTION ( 'NONE',  ( 0.000000000000000000, 0.000000000000000000, 1.000000000000000000 ) ) ;
#273 = UNCERTAINTY_MEASURE_WITH_UNIT (LENGTH_MEASURE( 1.000000000000000082E-05 ), #384, 'distance_accuracy_value', 'NONE');
#274 = CALENDAR_DATE ( 2022, 7, 6 ) ;
#275 = CC_DESIGN_PERSON_AND_ORGANIZATION_ASSIGNMENT ( #399, #239, ( #257 ) ) ;
#276 = APPROVAL_ROLE ( '' ) ;
#277 = AXIS2_PLACEMENT_3D ( 'NONE', #268, #133, #136 ) ;
#278 = VECTOR ( 'NONE', #291, 1000.000000000000000 ) ;
#279 = DIRECTION ( 'NONE',  ( 0.000000000000000000, 0.000000000000000000, 1.000000000000000000 ) ) ;
#280 = EDGE_LOOP ( 'NONE', ( #241, #378, #190, #123 ) ) ;
#281 = CALENDAR_DATE ( 2022, 7, 6 ) ;
#282 = VERTEX_POINT ( 'NONE', #298 ) ;
#283 = VERTEX_POINT ( 'NONE', #352 ) ;
#284 = FACE_OUTER_BOUND ( 'NONE', #319, .T. ) ;
#285 = ORIENTED_EDGE ( 'NONE', *, *, #253, .T. ) ;
#286 = DIRECTION ( 'NONE',  ( 1.000000000000000000, 0.000000000000000000, 0.000000000000000000 ) ) ;
#287 = ORIENTED_EDGE ( 'NONE', *, *, #63, .F. ) ;
#288 = DIRECTION ( 'NONE',  ( 1.000000000000000000, 0.000000000000000000, -0.000000000000000000 ) ) ;
#289 = AXIS2_PLACEMENT_3D ( 'NONE', #170, #326, #99 ) ;
#290 = EDGE_LOOP ( 'NONE', ( #116, #166 ) ) ;
#291 = DIRECTION ( 'NONE',  ( -0.000000000000000000, -0.000000000000000000, -1.000000000000000000 ) ) ;
#292 = EDGE_CURVE ( 'NONE', #104, #177, #401, .T. ) ;
#293 = PRODUCT_RELATED_PRODUCT_CATEGORY ( 'detail', '', ( #204 ) ) ;
#294 = DIRECTION ( 'NONE',  ( -0.000000000000000000, -0.000000000000000000, -1.000000000000000000 ) ) ;
#295 = CIRCLE ( 'NONE', #167, 1.755000000000006555 ) ;
#296 = AXIS2_PLACEMENT_3D ( 'NONE', #110, #237, #362 ) ;
#297 = EDGE_CURVE ( 'NONE', #184, #172, #270, .T. ) ;
#298 = CARTESIAN_POINT ( 'NONE',  ( -108.1150000000000091, 0.000000000000000000, 0.000000000000000000 ) ) ;
#299 = CARTESIAN_POINT ( 'NONE',  ( 106.3599999999999994, 0.000000000000000000, 9.529999999999999361 ) ) ;
#300 = CARTESIAN_POINT ( 'NONE',  ( 0.000000000000000000, 0.000000000000000000, 9.529999999999999361 ) ) ;
#301 = CARTESIAN_POINT ( 'NONE',  ( 101.5999999999999943, 1.244241147933710746E-14, 9.529999999999999361 ) ) ;
#302 = CARTESIAN_POINT ( 'NONE',  ( 0.000000000000000000, 0.000000000000000000, 0.000000000000000000 ) ) ;
#303 = DIRECTION ( 'NONE',  ( 0.000000000000000000, 0.000000000000000000, 1.000000000000000000 ) ) ;
#304 = PERSON_AND_ORGANIZATION ( #70, #211 ) ;
#305 = DIRECTION ( 'NONE',  ( 0.000000000000000000, 0.000000000000000000, 1.000000000000000000 ) ) ;
#306 = VECTOR ( 'NONE', #383, 1000.000000000000000 ) ;
#307 = FACE_OUTER_BOUND ( 'NONE', #117, .T. ) ;
#308 = ORIENTED_EDGE ( 'NONE', *, *, #69, .T. ) ;
#309 = AXIS2_PLACEMENT_3D ( 'NONE', #137, #394, #105 ) ;
#310 = VERTEX_POINT ( 'NONE', #44 ) ;
#311 = CARTESIAN_POINT ( 'NONE',  ( 111.1250000000000000, 1.360888755552496385E-14, 9.529999999999999361 ) ) ;
#312 = CYLINDRICAL_SURFACE ( 'NONE', #42, 1.755000000000006555 ) ;
#313 = LINE ( 'NONE', #119, #306 ) ;
#314 = LOCAL_TIME ( 10, 21, 1.000000000000000000, #51 ) ;
#315 = ORIENTED_EDGE ( 'NONE', *, *, #189, .F. ) ;
#316 = PLANE ( 'NONE',  #139 ) ;
#317 = CIRCLE ( 'NONE', #5, 101.5999999999999943 ) ;
#318 = AXIS2_PLACEMENT_3D ( 'NONE', #194, #379, #95 ) ;
#319 = EDGE_LOOP ( 'NONE', ( #308, #115 ) ) ;
#320 = FACE_OUTER_BOUND ( 'NONE', #252, .T. ) ;
#321 =( NAMED_UNIT ( * ) SI_UNIT ( $, .STERADIAN. ) SOLID_ANGLE_UNIT ( ) );
#322 = CARTESIAN_POINT ( 'NONE',  ( -101.5999999999999943, 0.000000000000000000, 9.529999999999999361 ) ) ;
#323 = ADVANCED_FACE ( 'NONE', ( #353 ), #98, .F. ) ;
#324 = CIRCLE ( 'NONE', #255, 111.1250000000000000 ) ;
#325 = DIRECTION ( 'NONE',  ( 0.000000000000000000, 0.000000000000000000, 1.000000000000000000 ) ) ;
#326 = DIRECTION ( 'NONE',  ( -0.000000000000000000, -0.000000000000000000, -1.000000000000000000 ) ) ;
#327 = LINE ( 'NONE', #356, #377 ) ;
#328 = CARTESIAN_POINT ( 'NONE',  ( 0.000000000000000000, 0.000000000000000000, 0.000000000000000000 ) ) ;
#329 = APPLICATION_PROTOCOL_DEFINITION ( 'international standard', 'config_control_design', 1994, #238 ) ;
#330 = PERSON_AND_ORGANIZATION ( #70, #211 ) ;
#331 = PERSON_AND_ORGANIZATION_ROLE ( 'design_owner' ) ;
#332 = ADVANCED_FACE ( 'NONE', ( #226 ), #15, .T. ) ;
#333 = ORIENTED_EDGE ( 'NONE', *, *, #403, .T. ) ;
#334 =( GEOMETRIC_REPRESENTATION_CONTEXT ( 3 ) GLOBAL_UNCERTAINTY_ASSIGNED_CONTEXT ( ( #273 ) ) GLOBAL_UNIT_ASSIGNED_CONTEXT ( ( #384, #351, #321 ) ) REPRESENTATION_CONTEXT ( 'NONE', 'WORKASPACE' ) );
#335 = AXIS2_PLACEMENT_3D ( 'NONE', #263, #325, #72 ) ;
#336 = ORIENTED_EDGE ( 'NONE', *, *, #411, .F. ) ;
#337 = ORIENTED_EDGE ( 'NONE', *, *, #80, .T. ) ;
#338 = APPROVAL_ROLE ( '' ) ;
#339 = EDGE_LOOP ( 'NONE', ( #347, #371 ) ) ;
#340 = FACE_BOUND ( 'NONE', #1, .T. ) ;
#341 = CC_DESIGN_APPROVAL ( #343, ( #257 ) ) ;
#342 = ORIENTED_EDGE ( 'NONE', *, *, #189, .T. ) ;
#343 = APPROVAL ( #18, 'UNSPECIFIED' ) ;
#344 = DIRECTION ( 'NONE',  ( -1.000000000000000000, 0.000000000000000000, 0.000000000000000000 ) ) ;
#345 = AXIS2_PLACEMENT_3D ( 'NONE', #389, #101, #228 ) ;
#346 = DIRECTION ( 'NONE',  ( 0.000000000000000000, 0.000000000000000000, 1.000000000000000000 ) ) ;
#347 = ORIENTED_EDGE ( 'NONE', *, *, #20, .T. ) ;
#348 = DIRECTION ( 'NONE',  ( -1.000000000000000000, 0.000000000000000000, 0.000000000000000000 ) ) ;
#349 = CARTESIAN_POINT ( 'NONE',  ( -101.5999999999999943, 0.000000000000000000, 0.000000000000000000 ) ) ;
#350 = ORIENTED_EDGE ( 'NONE', *, *, #69, .F. ) ;
#351 =( NAMED_UNIT ( * ) PLANE_ANGLE_UNIT ( ) SI_UNIT ( $, .RADIAN. ) );
#352 = CARTESIAN_POINT ( 'NONE',  ( 104.6049999999999898, 0.000000000000000000, 0.000000000000000000 ) ) ;
#353 = FACE_OUTER_BOUND ( 'NONE', #94, .T. ) ;
#354 = CARTESIAN_POINT ( 'NONE',  ( 104.6049999999999898, 0.000000000000000000, 9.529999999999999361 ) ) ;
#355 = VECTOR ( 'NONE', #132, 1000.000000000000000 ) ;
#356 = CARTESIAN_POINT ( 'NONE',  ( -104.6049999999999898, 2.149255132503607638E-16, 9.529999999999999361 ) ) ;
#357 = CARTESIAN_POINT ( 'NONE',  ( 106.3599999999999994, 0.000000000000000000, 0.000000000000000000 ) ) ;
#358 = FACE_OUTER_BOUND ( 'NONE', #381, .T. ) ;
#359 = EDGE_CURVE ( 'NONE', #375, #146, #168, .T. ) ;
#360 = CYLINDRICAL_SURFACE ( 'NONE', #261, 111.1250000000000000 ) ;
#361 = COORDINATED_UNIVERSAL_TIME_OFFSET ( 5, 0, .BEHIND. ) ;
#362 = DIRECTION ( 'NONE',  ( 1.000000000000000000, 0.000000000000000000, 0.000000000000000000 ) ) ;
#363 = APPROVAL_STATUS ( 'not_yet_approved' ) ;
#364 = APPROVAL_DATE_TIME ( #179, #181 ) ;
#365 = EDGE_CURVE ( 'NONE', #375, #187, #413, .T. ) ;
#366 = DATE_TIME_ROLE ( 'creation_date' ) ;
#367 = PERSON_AND_ORGANIZATION ( #70, #211 ) ;
#368 = ADVANCED_FACE ( 'NONE', ( #40 ), #202, .F. ) ;
#369 = FACE_OUTER_BOUND ( 'NONE', #248, .T. ) ;
#370 = CC_DESIGN_SECURITY_CLASSIFICATION ( #3, ( #150 ) ) ;
#371 = ORIENTED_EDGE ( 'NONE', *, *, #411, .T. ) ;
#372 = VECTOR ( 'NONE', #62, 1000.000000000000000 ) ;
#373 = ORIENTED_EDGE ( 'NONE', *, *, #92, .T. ) ;
#374 = CARTESIAN_POINT ( 'NONE',  ( 0.000000000000000000, 0.000000000000000000, 9.529999999999999361 ) ) ;
#375 = VERTEX_POINT ( 'NONE', #229 ) ;
#376 = CARTESIAN_POINT ( 'NONE',  ( 0.000000000000000000, 0.000000000000000000, 9.529999999999999361 ) ) ;
#377 = VECTOR ( 'NONE', #71, 1000.000000000000000 ) ;
#378 = ORIENTED_EDGE ( 'NONE', *, *, #406, .T. ) ;
#379 = DIRECTION ( 'NONE',  ( -0.000000000000000000, -0.000000000000000000, -1.000000000000000000 ) ) ;
#380 = AXIS2_PLACEMENT_3D ( 'NONE', #165, #251, #286 ) ;
#381 = EDGE_LOOP ( 'NONE', ( #27, #113, #342, #39 ) ) ;
#382 = CARTESIAN_POINT ( 'NONE',  ( -106.3599999999999994, 0.000000000000000000, 9.529999999999999361 ) ) ;
#383 = DIRECTION ( 'NONE',  ( -0.000000000000000000, -0.000000000000000000, -1.000000000000000000 ) ) ;
#384 =( LENGTH_UNIT ( ) NAMED_UNIT ( * ) SI_UNIT ( .MILLI., .METRE. ) );
#385 = AXIS2_PLACEMENT_3D ( 'NONE', #357, #305, #143 ) ;
#386 = CARTESIAN_POINT ( 'NONE',  ( 111.1250000000000000, 1.360888755552496385E-14, 9.529999999999999361 ) ) ;
#387 = CC_DESIGN_PERSON_AND_ORGANIZATION_ASSIGNMENT ( #235, #208, ( #150 ) ) ;
#388 = DIRECTION ( 'NONE',  ( 0.000000000000000000, 0.000000000000000000, 1.000000000000000000 ) ) ;
#389 = CARTESIAN_POINT ( 'NONE',  ( -106.3599999999999994, 0.000000000000000000, 9.529999999999999361 ) ) ;
#390 = AXIS2_PLACEMENT_3D ( 'NONE', #300, #134, #37 ) ;
#391 = CARTESIAN_POINT ( 'NONE',  ( -104.6049999999999898, 2.149255132503602215E-16, 9.529999999999999361 ) ) ;
#392 = AXIS2_PLACEMENT_3D ( 'NONE', #328, #303, #17 ) ;
#393 = CARTESIAN_POINT ( 'NONE',  ( -104.6049999999999898, 2.149255132503602215E-16, 0.000000000000000000 ) ) ;
#394 = DIRECTION ( 'NONE',  ( 0.000000000000000000, 0.000000000000000000, 1.000000000000000000 ) ) ;
#395 = ORIENTED_EDGE ( 'NONE', *, *, #127, .F. ) ;
#396 = COORDINATED_UNIVERSAL_TIME_OFFSET ( 5, 0, .BEHIND. ) ;
#397 = CARTESIAN_POINT ( 'NONE',  ( -106.3599999999999994, 0.000000000000000000, 0.000000000000000000 ) ) ;
#398 = CIRCLE ( 'NONE', #309, 101.5999999999999943 ) ;
#399 = PERSON_AND_ORGANIZATION ( #70, #211 ) ;
#400 = CIRCLE ( 'NONE', #277, 111.1250000000000000 ) ;
#401 = CIRCLE ( 'NONE', #271, 1.755000000000006555 ) ;
#402 = CALENDAR_DATE ( 2022, 7, 6 ) ;
#403 = EDGE_CURVE ( 'NONE', #262, #55, #327, .T. ) ;
#404 = VERTEX_POINT ( 'NONE', #174 ) ;
#405 = ORIENTED_EDGE ( 'NONE', *, *, #365, .F. ) ;
#406 = EDGE_CURVE ( 'NONE', #187, #183, #171, .T. ) ;
#407 = ORIENTED_EDGE ( 'NONE', *, *, #359, .T. ) ;
#408 = PLANE ( 'NONE',  #169 ) ;
#409 = CARTESIAN_POINT ( 'NONE',  ( 104.6049999999999898, 0.000000000000000000, 9.529999999999999361 ) ) ;
#410 = ORIENTED_EDGE ( 'NONE', *, *, #60, .F. ) ;
#411 = EDGE_CURVE ( 'NONE', #183, #146, #398, .T. ) ;
#412 = DIRECTION ( 'NONE',  ( 1.000000000000000000, 0.000000000000000000, 0.000000000000000000 ) ) ;
#413 = CIRCLE ( 'NONE', #230, 101.5999999999999943 ) ;
#414 = ORIENTED_EDGE ( 'NONE', *, *, #292, .F. ) ;
#415 = DIRECTION ( 'NONE',  ( 0.000000000000000000, 0.000000000000000000, 1.000000000000000000 ) ) ;
ENDSEC;
END-ISO-10303-21;
