ISO-10303-21;
HEADER;
FILE_DESCRIPTION (( 'STEP AP203' ),
    '1' );
FILE_NAME ('Web Model 64397MX_43753.step',
    '2017-10-30T13:01:37',
    ( '' ),
    ( '' ),
    'SwSTEP 2.0',
    'SolidWorks 2016',
    '' );
FILE_SCHEMA (( 'CONFIG_CONTROL_DESIGN' ));
ENDSEC;

DATA;
#1 = EDGE_LOOP ( 'NONE', ( #194, #229, #146, #64 ) ) ;
#2 = DIRECTION ( 'NONE',  ( -1.000000000000000000, -1.365923996832131600E-016, 0.0000000000000000000 ) ) ;
#3 = COORDINATED_UNIVERSAL_TIME_OFFSET ( 5, 0, .BEHIND. ) ;
#4 = ORIENTED_EDGE ( 'NONE', *, *, #236, .T. ) ;
#5 = EDGE_LOOP ( 'NONE', ( #37, #54, #237, #234 ) ) ;
#6 = DESIGN_CONTEXT ( 'detailed design', #80, 'design' ) ;
#7 = DIRECTION ( 'NONE',  ( -0.0000000000000000000, -1.000000000000000000, -0.0000000000000000000 ) ) ;
#8 = VECTOR ( 'NONE', #226, 1000.000000000000000 ) ;
#9 = LOCAL_TIME ( 9, 1, 37.00000000000000000, #3 ) ;
#10 = VECTOR ( 'NONE', #46, 1000.000000000000000 ) ;
#11 = AXIS2_PLACEMENT_3D ( 'NONE', #180, #178, #141 ) ;
#12 = CALENDAR_DATE ( 2017, 30, 10 ) ;
#13 = VERTEX_POINT ( 'NONE', #72 ) ;
#14 = CC_DESIGN_APPROVAL ( #201, ( #173 ) ) ;
#15 = LOCAL_TIME ( 9, 1, 37.00000000000000000, #66 ) ;
#16 = APPROVAL_PERSON_ORGANIZATION ( #221, #24, #145 ) ;
#17 = EDGE_LOOP ( 'NONE', ( #115, #25, #213, #111 ) ) ;
#18 = APPLICATION_PROTOCOL_DEFINITION ( 'international standard', 'config_control_design', 1994, #80 ) ;
#19 = CARTESIAN_POINT ( 'NONE',  ( 0.0000000000000000000, 0.0000000000000000000, 0.0000000000000000000 ) ) ;
#20 = CARTESIAN_POINT ( 'NONE',  ( 6.349999999999998800, -6.349999999999998800, 3.000000000000000000 ) ) ;
#21 = PRODUCT_RELATED_PRODUCT_CATEGORY ( 'detail', '', ( #179 ) ) ;
#22 = CARTESIAN_POINT ( 'NONE',  ( -6.350000000000000500, -6.350000000000000500, 3.000000000000000000 ) ) ;
#23 = CALENDAR_DATE ( 2017, 30, 10 ) ;
#24 = APPROVAL ( #119, 'UNSPECIFIED' ) ;
#25 = ORIENTED_EDGE ( 'NONE', *, *, #75, .F. ) ;
#26 = PLANE ( 'NONE',  #106 ) ;
#27 = DIRECTION ( 'NONE',  ( -0.0000000000000000000, -0.0000000000000000000, -1.000000000000000000 ) ) ;
#28 = CARTESIAN_POINT ( 'NONE',  ( -6.350000000000000500, -6.350000000000000500, 3.000000000000000000 ) ) ;
#29 = DIRECTION ( 'NONE',  ( 1.000000000000000000, 0.0000000000000000000, -0.0000000000000000000 ) ) ;
#30 = CALENDAR_DATE ( 2017, 30, 10 ) ;
#31 = PRODUCT_DEFINITION ( 'UNKNOWN', '', #133, #6 ) ;
#32 = MANIFOLD_SOLID_BREP ( 'Boss-Extrude1', #63 ) ;
#33 = VERTEX_POINT ( 'NONE', #107 ) ;
#34 = DATE_AND_TIME ( #30, #9 ) ;
#35 = ADVANCED_FACE ( 'NONE', ( #105 ), #26, .F. ) ;
#36 = DIRECTION ( 'NONE',  ( 0.0000000000000000000, -0.0000000000000000000, 1.000000000000000000 ) ) ;
#37 = ORIENTED_EDGE ( 'NONE', *, *, #130, .F. ) ;
#38 = DIRECTION ( 'NONE',  ( 1.000000000000000000, 0.0000000000000000000, 0.0000000000000000000 ) ) ;
#39 = CC_DESIGN_SECURITY_CLASSIFICATION ( #173, ( #133 ) ) ;
#40 = CARTESIAN_POINT ( 'NONE',  ( 6.349999999999998800, -6.349999999999998800, -3.000000000000000000 ) ) ;
#41 = CC_DESIGN_DATE_AND_TIME_ASSIGNMENT ( #126, #96, ( #31 ) ) ;
#42 = COORDINATED_UNIVERSAL_TIME_OFFSET ( 5, 0, .BEHIND. ) ;
#43 = VERTEX_POINT ( 'NONE', #139 ) ;
#44 = CARTESIAN_POINT ( 'NONE',  ( -6.350000000000000500, -6.350000000000000500, 3.000000000000000000 ) ) ;
#45 = PERSON ( 'UNSPECIFIED', 'UNSPECIFIED', 'UNSPECIFIED', ('UNSPECIFIED'), ('UNSPECIFIED'), ('UNSPECIFIED') ) ;
#46 = DIRECTION ( 'NONE',  ( 0.0000000000000000000, 1.000000000000000000, 0.0000000000000000000 ) ) ;
#47 = CARTESIAN_POINT ( 'NONE',  ( 6.349999999999998800, -6.349999999999998800, 3.000000000000000000 ) ) ;
#48 = DIRECTION ( 'NONE',  ( -0.0000000000000000000, -0.0000000000000000000, -1.000000000000000000 ) ) ;
#49 = VECTOR ( 'NONE', #89, 1000.000000000000000 ) ;
#50 = APPROVAL_PERSON_ORGANIZATION ( #118, #201, #233 ) ;
#51 = ORIENTED_EDGE ( 'NONE', *, *, #157, .T. ) ;
#52 = CC_DESIGN_PERSON_AND_ORGANIZATION_ASSIGNMENT ( #182, #95, ( #179 ) ) ;
#53 = FACE_OUTER_BOUND ( 'NONE', #5, .T. ) ;
#54 = ORIENTED_EDGE ( 'NONE', *, *, #92, .F. ) ;
#55 = LINE ( 'NONE', #217, #49 ) ;
#56 = CARTESIAN_POINT ( 'NONE',  ( 6.349999999999998800, 6.350000000000000500, 3.000000000000000000 ) ) ;
#57 = APPROVAL_DATE_TIME ( #113, #201 ) ;
#58 = SECURITY_CLASSIFICATION_LEVEL ( 'unclassified' ) ;
#59 = LINE ( 'NONE', #28, #228 ) ;
#60 = ORIENTED_EDGE ( 'NONE', *, *, #125, .T. ) ;
#61 = APPROVAL_ROLE ( '' ) ;
#62 =( NAMED_UNIT ( * ) PLANE_ANGLE_UNIT ( ) SI_UNIT ( $, .RADIAN. ) );
#63 = CLOSED_SHELL ( 'NONE', ( #35, #231, #164, #65, #152, #192 ) ) ;
#64 = ORIENTED_EDGE ( 'NONE', *, *, #140, .T. ) ;
#65 = ADVANCED_FACE ( 'NONE', ( #175 ), #174, .F. ) ;
#66 = COORDINATED_UNIVERSAL_TIME_OFFSET ( 5, 0, .BEHIND. ) ;
#67 = CARTESIAN_POINT ( 'NONE',  ( 6.349999999999998800, -6.349999999999998800, 3.000000000000000000 ) ) ;
#68 = CARTESIAN_POINT ( 'NONE',  ( 6.349999999999998800, 6.350000000000000500, 3.000000000000000000 ) ) ;
#69 = DIRECTION ( 'NONE',  ( 1.000000000000000000, 0.0000000000000000000, 0.0000000000000000000 ) ) ;
#70 = DIRECTION ( 'NONE',  ( -1.000000000000000000, -1.365923996832131600E-016, 0.0000000000000000000 ) ) ;
#71 = ORIENTED_EDGE ( 'NONE', *, *, #121, .F. ) ;
#72 = CARTESIAN_POINT ( 'NONE',  ( 6.349999999999998800, 6.350000000000000500, -3.000000000000000000 ) ) ;
#73 = DIRECTION ( 'NONE',  ( 0.0000000000000000000, -0.0000000000000000000, 1.000000000000000000 ) ) ;
#74 = ORIENTED_EDGE ( 'NONE', *, *, #121, .T. ) ;
#75 = EDGE_CURVE ( 'NONE', #142, #135, #172, .T. ) ;
#76 = EDGE_LOOP ( 'NONE', ( #88, #224, #71, #181 ) ) ;
#77 = APPLICATION_PROTOCOL_DEFINITION ( 'international standard', 'config_control_design', 1994, #187 ) ;
#78 = CARTESIAN_POINT ( 'NONE',  ( 0.0000000000000000000, 0.0000000000000000000, -3.000000000000000000 ) ) ;
#79 = COORDINATED_UNIVERSAL_TIME_OFFSET ( 5, 0, .BEHIND. ) ;
#80 = APPLICATION_CONTEXT ( 'configuration controlled 3d designs of mechanical parts and assemblies' ) ;
#81 = EDGE_CURVE ( 'NONE', #135, #219, #82, .T. ) ;
#82 = LINE ( 'NONE', #176, #167 ) ;
#83 = UNCERTAINTY_MEASURE_WITH_UNIT (LENGTH_MEASURE( 1.000000000000000100E-005 ), #171, 'distance_accuracy_value', 'NONE');
#84 = PERSON_AND_ORGANIZATION ( #45, #104 ) ;
#85 = CARTESIAN_POINT ( 'NONE',  ( 6.349999999999998800, 6.350000000000000500, 3.000000000000000000 ) ) ;
#86 = EDGE_CURVE ( 'NONE', #219, #13, #163, .T. ) ;
#87 = CARTESIAN_POINT ( 'NONE',  ( 6.349999999999998800, 6.350000000000000500, -3.000000000000000000 ) ) ;
#88 = ORIENTED_EDGE ( 'NONE', *, *, #86, .T. ) ;
#89 = DIRECTION ( 'NONE',  ( 1.000000000000000000, 1.365923996832131600E-016, -0.0000000000000000000 ) ) ;
#90 = DIRECTION ( 'NONE',  ( 1.365923996832131600E-016, -1.000000000000000000, 0.0000000000000000000 ) ) ;
#91 = CALENDAR_DATE ( 2017, 30, 10 ) ;
#92 = EDGE_CURVE ( 'NONE', #13, #33, #153, .T. ) ;
#93 = CARTESIAN_POINT ( 'NONE',  ( 0.0000000000000000000, 0.0000000000000000000, 3.000000000000000000 ) ) ;
#94 = EDGE_LOOP ( 'NONE', ( #138, #190, #198, #186 ) ) ;
#95 = PERSON_AND_ORGANIZATION_ROLE ( 'design_owner' ) ;
#96 = DATE_TIME_ROLE ( 'creation_date' ) ;
#97 = APPROVAL_PERSON_ORGANIZATION ( #212, #220, #61 ) ;
#98 = AXIS2_PLACEMENT_3D ( 'NONE', #19, #183, #38 ) ;
#99 = VERTEX_POINT ( 'NONE', #136 ) ;
#100 = DIRECTION ( 'NONE',  ( 1.000000000000000000, 0.0000000000000000000, -0.0000000000000000000 ) ) ;
#101 = PERSON_AND_ORGANIZATION_ROLE ( 'creator' ) ;
#102 = VECTOR ( 'NONE', #131, 1000.000000000000000 ) ;
#103 = LOCAL_TIME ( 9, 1, 37.00000000000000000, #211 ) ;
#104 = ORGANIZATION ( 'UNSPECIFIED', 'UNSPECIFIED', '' ) ;
#105 = FACE_OUTER_BOUND ( 'NONE', #17, .T. ) ;
#106 = AXIS2_PLACEMENT_3D ( 'NONE', #22, #69, #158 ) ;
#107 = CARTESIAN_POINT ( 'NONE',  ( -6.350000000000000500, 6.349999999999998800, -3.000000000000000000 ) ) ;
#108 = LINE ( 'NONE', #218, #206 ) ;
#109 = DIRECTION ( 'NONE',  ( 0.0000000000000000000, 1.000000000000000000, 0.0000000000000000000 ) ) ;
#110 = CARTESIAN_POINT ( 'NONE',  ( -6.350000000000000500, 6.349999999999998800, 3.000000000000000000 ) ) ;
#111 = ORIENTED_EDGE ( 'NONE', *, *, #177, .T. ) ;
#112 = VECTOR ( 'NONE', #70, 1000.000000000000000 ) ;
#113 = DATE_AND_TIME ( #12, #15 ) ;
#114 = VECTOR ( 'NONE', #48, 1000.000000000000000 ) ;
#115 = ORIENTED_EDGE ( 'NONE', *, *, #130, .T. ) ;
#116 = CARTESIAN_POINT ( 'NONE',  ( -6.350000000000000500, 6.349999999999998800, 3.000000000000000000 ) ) ;
#117 = AXIS2_PLACEMENT_3D ( 'NONE', #68, #90, #193 ) ;
#118 = PERSON_AND_ORGANIZATION ( #45, #104 ) ;
#119 = APPROVAL_STATUS ( 'not_yet_approved' ) ;
#120 = PLANE ( 'NONE',  #191 ) ;
#121 = EDGE_CURVE ( 'NONE', #43, #99, #129, .T. ) ;
#122 = DIRECTION ( 'NONE',  ( -0.0000000000000000000, -0.0000000000000000000, -1.000000000000000000 ) ) ;
#123 = FACE_OUTER_BOUND ( 'NONE', #203, .T. ) ;
#124 = CARTESIAN_POINT ( 'NONE',  ( -6.350000000000000500, -6.350000000000000500, -3.000000000000000000 ) ) ;
#125 = EDGE_CURVE ( 'NONE', #142, #43, #55, .T. ) ;
#126 = DATE_AND_TIME ( #23, #189 ) ;
#127 = VECTOR ( 'NONE', #122, 1000.000000000000000 ) ;
#128 = AXIS2_PLACEMENT_3D ( 'NONE', #93, #73, #29 ) ;
#129 = LINE ( 'NONE', #67, #143 ) ;
#130 = EDGE_CURVE ( 'NONE', #33, #135, #108, .T. ) ;
#131 = DIRECTION ( 'NONE',  ( -1.000000000000000000, -1.365923996832131600E-016, 0.0000000000000000000 ) ) ;
#132 =( NAMED_UNIT ( * ) SI_UNIT ( $, .STERADIAN. ) SOLID_ANGLE_UNIT ( ) );
#133 = PRODUCT_DEFINITION_FORMATION_WITH_SPECIFIED_SOURCE ( 'ANY', '', #179, .NOT_KNOWN. ) ;
#134 = SHAPE_DEFINITION_REPRESENTATION ( #188, #160 ) ;
#135 = VERTEX_POINT ( 'NONE', #124 ) ;
#136 = CARTESIAN_POINT ( 'NONE',  ( 6.349999999999998800, 6.350000000000000500, 3.000000000000000000 ) ) ;
#137 = APPROVAL_DATE_TIME ( #161, #220 ) ;
#138 = ORIENTED_EDGE ( 'NONE', *, *, #81, .T. ) ;
#139 = CARTESIAN_POINT ( 'NONE',  ( 6.349999999999998800, -6.349999999999998800, 3.000000000000000000 ) ) ;
#140 = EDGE_CURVE ( 'NONE', #99, #13, #156, .T. ) ;
#141 = DIRECTION ( 'NONE',  ( 0.0000000000000000000, 0.0000000000000000000, 1.000000000000000000 ) ) ;
#142 = VERTEX_POINT ( 'NONE', #44 ) ;
#143 = VECTOR ( 'NONE', #109, 1000.000000000000000 ) ;
#144 = AXIS2_PLACEMENT_3D ( 'NONE', #78, #36, #100 ) ;
#145 = APPROVAL_ROLE ( '' ) ;
#146 = ORIENTED_EDGE ( 'NONE', *, *, #236, .F. ) ;
#147 = PERSON_AND_ORGANIZATION_ROLE ( 'creator' ) ;
#148 = PLANE ( 'NONE',  #144 ) ;
#149 = CC_DESIGN_DATE_AND_TIME_ASSIGNMENT ( #214, #210, ( #173 ) ) ;
#150 = FACE_OUTER_BOUND ( 'NONE', #94, .T. ) ;
#151 = FACE_OUTER_BOUND ( 'NONE', #76, .T. ) ;
#152 = ADVANCED_FACE ( 'NONE', ( #123 ), #200, .T. ) ;
#153 = LINE ( 'NONE', #87, #112 ) ;
#154 = CC_DESIGN_APPROVAL ( #24, ( #133 ) ) ;
#155 = PERSON_AND_ORGANIZATION ( #45, #104 ) ;
#156 = LINE ( 'NONE', #85, #114 ) ;
#157 = EDGE_CURVE ( 'NONE', #216, #142, #59, .T. ) ;
#158 = DIRECTION ( 'NONE',  ( 0.0000000000000000000, 0.0000000000000000000, -1.000000000000000000 ) ) ;
#159 = CARTESIAN_POINT ( 'NONE',  ( -6.350000000000000500, -6.350000000000000500, 3.000000000000000000 ) ) ;
#160 = ADVANCED_BREP_SHAPE_REPRESENTATION ( 'Web Model 64397MX_43753', ( #32, #98 ), #207 ) ;
#161 = DATE_AND_TIME ( #225, #215 ) ;
#162 = CC_DESIGN_PERSON_AND_ORGANIZATION_ASSIGNMENT ( #155, #170, ( #133 ) ) ;
#163 = LINE ( 'NONE', #196, #10 ) ;
#164 = ADVANCED_FACE ( 'NONE', ( #151 ), #199, .F. ) ;
#165 = LINE ( 'NONE', #110, #8 ) ;
#166 = EDGE_CURVE ( 'NONE', #43, #219, #209, .T. ) ;
#167 = VECTOR ( 'NONE', #197, 1000.000000000000000 ) ;
#168 = CC_DESIGN_PERSON_AND_ORGANIZATION_ASSIGNMENT ( #84, #147, ( #133 ) ) ;
#169 = APPROVAL_DATE_TIME ( #34, #24 ) ;
#170 = PERSON_AND_ORGANIZATION_ROLE ( 'design_supplier' ) ;
#171 =( LENGTH_UNIT ( ) NAMED_UNIT ( * ) SI_UNIT ( .MILLI., .METRE. ) );
#172 = LINE ( 'NONE', #159, #127 ) ;
#173 = SECURITY_CLASSIFICATION ( '', '', #58 ) ;
#174 = PLANE ( 'NONE',  #117 ) ;
#175 = FACE_OUTER_BOUND ( 'NONE', #1, .T. ) ;
#176 = CARTESIAN_POINT ( 'NONE',  ( 6.349999999999998800, -6.349999999999998800, -3.000000000000000000 ) ) ;
#177 = EDGE_CURVE ( 'NONE', #216, #33, #165, .T. ) ;
#178 = DIRECTION ( 'NONE',  ( -1.000000000000000000, 0.0000000000000000000, 0.0000000000000000000 ) ) ;
#179 = PRODUCT ( 'Web Model 64397MX_43753', 'Web Model 64397MX_43753', '', ( #208 ) ) ;
#180 = CARTESIAN_POINT ( 'NONE',  ( 6.349999999999998800, -6.349999999999998800, 3.000000000000000000 ) ) ;
#181 = ORIENTED_EDGE ( 'NONE', *, *, #166, .T. ) ;
#182 = PERSON_AND_ORGANIZATION ( #45, #104 ) ;
#183 = DIRECTION ( 'NONE',  ( 0.0000000000000000000, 0.0000000000000000000, 1.000000000000000000 ) ) ;
#184 = PERSON_AND_ORGANIZATION_ROLE ( 'classification_officer' ) ;
#185 = DIRECTION ( 'NONE',  ( -1.365923996832131600E-016, 1.000000000000000000, 0.0000000000000000000 ) ) ;
#186 = ORIENTED_EDGE ( 'NONE', *, *, #75, .T. ) ;
#187 = APPLICATION_CONTEXT ( 'configuration controlled 3d designs of mechanical parts and assemblies' ) ;
#188 = PRODUCT_DEFINITION_SHAPE ( 'NONE', 'NONE',  #31 ) ;
#189 = LOCAL_TIME ( 9, 1, 37.00000000000000000, #79 ) ;
#190 = ORIENTED_EDGE ( 'NONE', *, *, #166, .F. ) ;
#191 = AXIS2_PLACEMENT_3D ( 'NONE', #20, #185, #2 ) ;
#192 = ADVANCED_FACE ( 'NONE', ( #53 ), #148, .F. ) ;
#193 = DIRECTION ( 'NONE',  ( 1.000000000000000000, 1.365923996832131600E-016, 0.0000000000000000000 ) ) ;
#194 = ORIENTED_EDGE ( 'NONE', *, *, #92, .T. ) ;
#195 = CC_DESIGN_APPROVAL ( #220, ( #31 ) ) ;
#196 = CARTESIAN_POINT ( 'NONE',  ( 6.349999999999998800, -6.349999999999998800, -3.000000000000000000 ) ) ;
#197 = DIRECTION ( 'NONE',  ( 1.000000000000000000, 1.365923996832131600E-016, -0.0000000000000000000 ) ) ;
#198 = ORIENTED_EDGE ( 'NONE', *, *, #125, .F. ) ;
#199 = PLANE ( 'NONE',  #11 ) ;
#200 = PLANE ( 'NONE',  #128 ) ;
#201 = APPROVAL ( #230, 'UNSPECIFIED' ) ;
#202 = VECTOR ( 'NONE', #27, 1000.000000000000000 ) ;
#203 = EDGE_LOOP ( 'NONE', ( #51, #60, #74, #4 ) ) ;
#204 = LINE ( 'NONE', #56, #102 ) ;
#205 = PERSON_AND_ORGANIZATION ( #45, #104 ) ;
#206 = VECTOR ( 'NONE', #7, 1000.000000000000000 ) ;
#207 =( GEOMETRIC_REPRESENTATION_CONTEXT ( 3 ) GLOBAL_UNCERTAINTY_ASSIGNED_CONTEXT ( ( #83 ) ) GLOBAL_UNIT_ASSIGNED_CONTEXT ( ( #171, #62, #132 ) ) REPRESENTATION_CONTEXT ( 'NONE', 'WORKASPACE' ) );
#208 = MECHANICAL_CONTEXT ( 'NONE', #187, 'mechanical' ) ;
#209 = LINE ( 'NONE', #47, #202 ) ;
#210 = DATE_TIME_ROLE ( 'classification_date' ) ;
#211 = COORDINATED_UNIVERSAL_TIME_OFFSET ( 5, 0, .BEHIND. ) ;
#212 = PERSON_AND_ORGANIZATION ( #45, #104 ) ;
#213 = ORIENTED_EDGE ( 'NONE', *, *, #157, .F. ) ;
#214 = DATE_AND_TIME ( #91, #103 ) ;
#215 = LOCAL_TIME ( 9, 1, 37.00000000000000000, #42 ) ;
#216 = VERTEX_POINT ( 'NONE', #116 ) ;
#217 = CARTESIAN_POINT ( 'NONE',  ( 6.349999999999998800, -6.349999999999998800, 3.000000000000000000 ) ) ;
#218 = CARTESIAN_POINT ( 'NONE',  ( -6.350000000000000500, -6.350000000000000500, -3.000000000000000000 ) ) ;
#219 = VERTEX_POINT ( 'NONE', #40 ) ;
#220 = APPROVAL ( #227, 'UNSPECIFIED' ) ;
#221 = PERSON_AND_ORGANIZATION ( #45, #104 ) ;
#222 = PERSON_AND_ORGANIZATION ( #45, #104 ) ;
#223 = CC_DESIGN_PERSON_AND_ORGANIZATION_ASSIGNMENT ( #222, #101, ( #31 ) ) ;
#224 = ORIENTED_EDGE ( 'NONE', *, *, #140, .F. ) ;
#225 = CALENDAR_DATE ( 2017, 30, 10 ) ;
#226 = DIRECTION ( 'NONE',  ( -0.0000000000000000000, -0.0000000000000000000, -1.000000000000000000 ) ) ;
#227 = APPROVAL_STATUS ( 'not_yet_approved' ) ;
#228 = VECTOR ( 'NONE', #235, 1000.000000000000000 ) ;
#229 = ORIENTED_EDGE ( 'NONE', *, *, #177, .F. ) ;
#230 = APPROVAL_STATUS ( 'not_yet_approved' ) ;
#231 = ADVANCED_FACE ( 'NONE', ( #150 ), #120, .F. ) ;
#232 = CC_DESIGN_PERSON_AND_ORGANIZATION_ASSIGNMENT ( #205, #184, ( #173 ) ) ;
#233 = APPROVAL_ROLE ( '' ) ;
#234 = ORIENTED_EDGE ( 'NONE', *, *, #81, .F. ) ;
#235 = DIRECTION ( 'NONE',  ( -0.0000000000000000000, -1.000000000000000000, -0.0000000000000000000 ) ) ;
#236 = EDGE_CURVE ( 'NONE', #99, #216, #204, .T. ) ;
#237 = ORIENTED_EDGE ( 'NONE', *, *, #86, .F. ) ;
ENDSEC;
END-ISO-10303-21;
