ISO-10303-21;
HEADER;
FILE_DESCRIPTION (( 'STEP AP203' ),
    '1' );
FILE_NAME ('Web Model 68387.STEP',
    '2017-01-31T19:53:48',
    ( '' ),
    ( '' ),
    'SwSTEP 2.0',
    'SolidWorks 2016',
    '' );
FILE_SCHEMA (( 'CONFIG_CONTROL_DESIGN' ));
ENDSEC;

DATA;
#1 = DIRECTION ( 'NONE',  ( -0.0000000000000000000, -0.0000000000000000000, -1.000000000000000000 ) ) ;
#2 = MANIFOLD_SOLID_BREP ( 'Extrude1', #114 ) ;
#3 = PLANE ( 'NONE',  #236 ) ;
#4 = DATE_TIME_ROLE ( 'classification_date' ) ;
#5 = CALENDAR_DATE ( 2017, 31, 1 ) ;
#6 = ORIENTED_EDGE ( 'NONE', *, *, #98, .F. ) ;
#7 = CC_DESIGN_APPROVAL ( #174, ( #73 ) ) ;
#8 = ADVANCED_BREP_SHAPE_REPRESENTATION ( 'Web Model 68387', ( #2, #190 ), #113 ) ;
#9 = FACE_OUTER_BOUND ( 'NONE', #39, .T. ) ;
#10 = PERSON_AND_ORGANIZATION ( #105, #147 ) ;
#11 = APPROVAL_DATE_TIME ( #110, #36 ) ;
#12 = ORIENTED_EDGE ( 'NONE', *, *, #30, .F. ) ;
#13 = DIRECTION ( 'NONE',  ( -1.000000000000000000, 0.0000000000000000000, -0.0000000000000000000 ) ) ;
#14 = CC_DESIGN_PERSON_AND_ORGANIZATION_ASSIGNMENT ( #184, #71, ( #123 ) ) ;
#15 = CARTESIAN_POINT ( 'NONE',  ( -12.49999999999999500, -12.50000000000000400, 3.000000000000000000 ) ) ;
#16 = PERSON_AND_ORGANIZATION ( #105, #147 ) ;
#17 = ORIENTED_EDGE ( 'NONE', *, *, #185, .T. ) ;
#18 = DIRECTION ( 'NONE',  ( -1.000000000000000000, -1.387778780781445400E-016, 0.0000000000000000000 ) ) ;
#19 = LINE ( 'NONE', #60, #227 ) ;
#20 = CARTESIAN_POINT ( 'NONE',  ( 12.50000000000000500, -12.50000000000000000, 3.000000000000000000 ) ) ;
#21 = EDGE_CURVE ( 'NONE', #29, #149, #32, .T. ) ;
#22 = CARTESIAN_POINT ( 'NONE',  ( 12.50000000000000500, -12.50000000000000000, 0.0000000000000000000 ) ) ;
#23 = PRODUCT_DEFINITION_SHAPE ( 'NONE', 'NONE',  #123 ) ;
#24 = DIRECTION ( 'NONE',  ( -1.000000000000000000, -4.163336342344336500E-016, 0.0000000000000000000 ) ) ;
#25 = LINE ( 'NONE', #20, #191 ) ;
#26 = VECTOR ( 'NONE', #96, 1000.000000000000000 ) ;
#27 = PERSON_AND_ORGANIZATION_ROLE ( 'classification_officer' ) ;
#28 = LOCAL_TIME ( 14, 53, 48.00000000000000000, #34 ) ;
#29 = VERTEX_POINT ( 'NONE', #218 ) ;
#30 = EDGE_CURVE ( 'NONE', #111, #149, #74, .T. ) ;
#31 = CC_DESIGN_APPROVAL ( #229, ( #92 ) ) ;
#32 = LINE ( 'NONE', #79, #125 ) ;
#33 = EDGE_CURVE ( 'NONE', #61, #181, #19, .T. ) ;
#34 = COORDINATED_UNIVERSAL_TIME_OFFSET ( 5, 0, .BEHIND. ) ;
#35 = ORIENTED_EDGE ( 'NONE', *, *, #55, .F. ) ;
#36 = APPROVAL ( #161, 'UNSPECIFIED' ) ;
#37 = DIRECTION ( 'NONE',  ( 0.0000000000000000000, 0.0000000000000000000, -1.000000000000000000 ) ) ;
#38 = DIRECTION ( 'NONE',  ( 0.0000000000000000000, 0.0000000000000000000, -1.000000000000000000 ) ) ;
#39 = EDGE_LOOP ( 'NONE', ( #203, #72, #160, #212 ) ) ;
#40 = DIRECTION ( 'NONE',  ( -0.0000000000000000000, -0.0000000000000000000, -1.000000000000000000 ) ) ;
#41 = AXIS2_PLACEMENT_3D ( 'NONE', #15, #37, #195 ) ;
#42 = CARTESIAN_POINT ( 'NONE',  ( 12.49999999999999500, 12.50000000000000000, 3.000000000000000000 ) ) ;
#43 = ORIENTED_EDGE ( 'NONE', *, *, #98, .T. ) ;
#44 = DIRECTION ( 'NONE',  ( 1.387778780781445900E-016, -1.000000000000000000, 0.0000000000000000000 ) ) ;
#45 = PLANE ( 'NONE',  #154 ) ;
#46 = DIRECTION ( 'NONE',  ( 1.000000000000000000, 1.387778780781445700E-016, -0.0000000000000000000 ) ) ;
#47 = ADVANCED_FACE ( 'NONE', ( #170 ), #57, .T. ) ;
#48 = APPROVAL_PERSON_ORGANIZATION ( #189, #174, #86 ) ;
#49 = CC_DESIGN_PERSON_AND_ORGANIZATION_ASSIGNMENT ( #151, #89, ( #92 ) ) ;
#50 = EDGE_CURVE ( 'NONE', #149, #82, #221, .T. ) ;
#51 = ADVANCED_FACE ( 'NONE', ( #122 ), #179, .F. ) ;
#52 = DIRECTION ( 'NONE',  ( 1.000000000000000000, 0.0000000000000000000, 0.0000000000000000000 ) ) ;
#53 = VERTEX_POINT ( 'NONE', #155 ) ;
#54 = DATE_AND_TIME ( #100, #28 ) ;
#55 = EDGE_CURVE ( 'NONE', #157, #111, #121, .T. ) ;
#56 = LINE ( 'NONE', #182, #102 ) ;
#57 = PLANE ( 'NONE',  #211 ) ;
#58 = CARTESIAN_POINT ( 'NONE',  ( -12.49999999999999500, -12.50000000000000400, 0.0000000000000000000 ) ) ;
#59 = COORDINATED_UNIVERSAL_TIME_OFFSET ( 5, 0, .BEHIND. ) ;
#60 = CARTESIAN_POINT ( 'NONE',  ( 12.49999999999999500, 12.50000000000000000, 3.000000000000000000 ) ) ;
#61 = VERTEX_POINT ( 'NONE', #77 ) ;
#62 = DIRECTION ( 'NONE',  ( 1.387778780781445700E-016, -1.000000000000000000, 0.0000000000000000000 ) ) ;
#63 = CARTESIAN_POINT ( 'NONE',  ( -12.49999999999999800, 12.49999999999999600, 3.000000000000000000 ) ) ;
#64 = ADVANCED_FACE ( 'NONE', ( #163 ), #3, .F. ) ;
#65 = LINE ( 'NONE', #22, #216 ) ;
#66 = DIRECTION ( 'NONE',  ( -1.000000000000000000, -1.387778780781445900E-016, 0.0000000000000000000 ) ) ;
#67 = APPROVAL_STATUS ( 'not_yet_approved' ) ;
#68 = APPROVAL_ROLE ( '' ) ;
#69 = CALENDAR_DATE ( 2017, 31, 1 ) ;
#70 = ORIENTED_EDGE ( 'NONE', *, *, #178, .T. ) ;
#71 = PERSON_AND_ORGANIZATION_ROLE ( 'creator' ) ;
#72 = ORIENTED_EDGE ( 'NONE', *, *, #185, .F. ) ;
#73 = SECURITY_CLASSIFICATION ( '', '', #206 ) ;
#74 = LINE ( 'NONE', #213, #26 ) ;
#75 = COORDINATED_UNIVERSAL_TIME_OFFSET ( 5, 0, .BEHIND. ) ;
#76 = LINE ( 'NONE', #159, #172 ) ;
#77 = CARTESIAN_POINT ( 'NONE',  ( 12.50000000000000500, -12.50000000000000000, 3.000000000000000000 ) ) ;
#78 = PRODUCT_RELATED_PRODUCT_CATEGORY ( 'detail', '', ( #124 ) ) ;
#79 = CARTESIAN_POINT ( 'NONE',  ( -12.49999999999999800, 12.49999999999999600, 3.000000000000000000 ) ) ;
#80 = DIRECTION ( 'NONE',  ( 1.000000000000000000, 1.387778780781445700E-016, -0.0000000000000000000 ) ) ;
#81 = PLANE ( 'NONE',  #139 ) ;
#82 = VERTEX_POINT ( 'NONE', #225 ) ;
#83 = PLANE ( 'NONE',  #232 ) ;
#84 = EDGE_LOOP ( 'NONE', ( #94, #128, #6, #133 ) ) ;
#85 = ADVANCED_FACE ( 'NONE', ( #127 ), #83, .F. ) ;
#86 = APPROVAL_ROLE ( '' ) ;
#87 = APPLICATION_PROTOCOL_DEFINITION ( 'international standard', 'config_control_design', 1994, #135 ) ;
#88 = EDGE_LOOP ( 'NONE', ( #43, #70, #237, #153 ) ) ;
#89 = PERSON_AND_ORGANIZATION_ROLE ( 'design_supplier' ) ;
#90 = VECTOR ( 'NONE', #66, 1000.000000000000000 ) ;
#91 = ORIENTED_EDGE ( 'NONE', *, *, #200, .T. ) ;
#92 = PRODUCT_DEFINITION_FORMATION_WITH_SPECIFIED_SOURCE ( 'ANY', '', #124, .NOT_KNOWN. ) ;
#93 = DATE_AND_TIME ( #186, #226 ) ;
#94 = ORIENTED_EDGE ( 'NONE', *, *, #50, .T. ) ;
#95 = APPROVAL_PERSON_ORGANIZATION ( #141, #229, #208 ) ;
#96 = DIRECTION ( 'NONE',  ( -1.000000000000000000, -1.387778780781445900E-016, 0.0000000000000000000 ) ) ;
#97 = PERSON_AND_ORGANIZATION ( #105, #147 ) ;
#98 = EDGE_CURVE ( 'NONE', #29, #53, #76, .T. ) ;
#99 = CARTESIAN_POINT ( 'NONE',  ( 12.50000000000000500, -12.50000000000000000, 0.0000000000000000000 ) ) ;
#100 = CALENDAR_DATE ( 2017, 31, 1 ) ;
#101 = CARTESIAN_POINT ( 'NONE',  ( -12.49999999999999800, 12.49999999999999600, 0.0000000000000000000 ) ) ;
#102 = VECTOR ( 'NONE', #202, 1000.000000000000000 ) ;
#103 = CC_DESIGN_PERSON_AND_ORGANIZATION_ASSIGNMENT ( #97, #107, ( #92 ) ) ;
#104 = APPROVAL_DATE_TIME ( #93, #229 ) ;
#105 = PERSON ( 'UNSPECIFIED', 'UNSPECIFIED', 'UNSPECIFIED', ('UNSPECIFIED'), ('UNSPECIFIED'), ('UNSPECIFIED') ) ;
#106 = APPROVAL_STATUS ( 'not_yet_approved' ) ;
#107 = PERSON_AND_ORGANIZATION_ROLE ( 'creator' ) ;
#108 = CC_DESIGN_PERSON_AND_ORGANIZATION_ASSIGNMENT ( #10, #27, ( #73 ) ) ;
#109 = DESIGN_CONTEXT ( 'detailed design', #188, 'design' ) ;
#110 = DATE_AND_TIME ( #69, #152 ) ;
#111 = VERTEX_POINT ( 'NONE', #158 ) ;
#112 = PERSON_AND_ORGANIZATION ( #105, #147 ) ;
#113 =( GEOMETRIC_REPRESENTATION_CONTEXT ( 3 ) GLOBAL_UNCERTAINTY_ASSIGNED_CONTEXT ( ( #199 ) ) GLOBAL_UNIT_ASSIGNED_CONTEXT ( ( #167, #146, #165 ) ) REPRESENTATION_CONTEXT ( 'NONE', 'WORKASPACE' ) );
#114 = CLOSED_SHELL ( 'NONE', ( #85, #130, #183, #64, #51, #47 ) ) ;
#115 = DIRECTION ( 'NONE',  ( -1.387778780781445400E-016, 1.000000000000000000, 0.0000000000000000000 ) ) ;
#116 = DIRECTION ( 'NONE',  ( 0.0000000000000000000, 0.0000000000000000000, 1.000000000000000000 ) ) ;
#117 = CARTESIAN_POINT ( 'NONE',  ( -12.49999999999999500, -12.50000000000000400, 3.000000000000000000 ) ) ;
#118 = VECTOR ( 'NONE', #196, 1000.000000000000000 ) ;
#119 = DATE_TIME_ROLE ( 'creation_date' ) ;
#120 = PERSON_AND_ORGANIZATION_ROLE ( 'design_owner' ) ;
#121 = LINE ( 'NONE', #140, #118 ) ;
#122 = FACE_OUTER_BOUND ( 'NONE', #88, .T. ) ;
#123 = PRODUCT_DEFINITION ( 'UNKNOWN', '', #92, #109 ) ;
#124 = PRODUCT ( 'Web Model 68387', 'Web Model 68387', '', ( #145 ) ) ;
#125 = VECTOR ( 'NONE', #40, 1000.000000000000000 ) ;
#126 = EDGE_CURVE ( 'NONE', #61, #157, #56, .T. ) ;
#127 = FACE_OUTER_BOUND ( 'NONE', #84, .T. ) ;
#128 = ORIENTED_EDGE ( 'NONE', *, *, #168, .F. ) ;
#129 = CARTESIAN_POINT ( 'NONE',  ( 12.50000000000000500, -12.50000000000000000, 3.000000000000000000 ) ) ;
#130 = ADVANCED_FACE ( 'NONE', ( #231 ), #45, .F. ) ;
#131 = DIRECTION ( 'NONE',  ( -0.0000000000000000000, -0.0000000000000000000, -1.000000000000000000 ) ) ;
#132 = COORDINATED_UNIVERSAL_TIME_OFFSET ( 5, 0, .BEHIND. ) ;
#133 = ORIENTED_EDGE ( 'NONE', *, *, #21, .T. ) ;
#134 = CARTESIAN_POINT ( 'NONE',  ( 12.49999999999999500, 12.50000000000000000, 3.000000000000000000 ) ) ;
#135 = APPLICATION_CONTEXT ( 'configuration controlled 3d designs of mechanical parts and assemblies' ) ;
#136 = LINE ( 'NONE', #205, #90 ) ;
#137 = ORIENTED_EDGE ( 'NONE', *, *, #50, .F. ) ;
#138 = LOCAL_TIME ( 14, 53, 48.00000000000000000, #197 ) ;
#139 = AXIS2_PLACEMENT_3D ( 'NONE', #42, #24, #224 ) ;
#140 = CARTESIAN_POINT ( 'NONE',  ( 12.49999999999999500, 12.50000000000000000, 0.0000000000000000000 ) ) ;
#141 = PERSON_AND_ORGANIZATION ( #105, #147 ) ;
#142 = ORIENTED_EDGE ( 'NONE', *, *, #200, .F. ) ;
#143 = APPROVAL_PERSON_ORGANIZATION ( #16, #36, #68 ) ;
#144 = DIRECTION ( 'NONE',  ( -1.387778780781445400E-016, 1.000000000000000000, 0.0000000000000000000 ) ) ;
#145 = MECHANICAL_CONTEXT ( 'NONE', #135, 'mechanical' ) ;
#146 =( NAMED_UNIT ( * ) PLANE_ANGLE_UNIT ( ) SI_UNIT ( $, .RADIAN. ) );
#147 = ORGANIZATION ( 'UNSPECIFIED', 'UNSPECIFIED', '' ) ;
#148 = EDGE_CURVE ( 'NONE', #181, #29, #136, .T. ) ;
#149 = VERTEX_POINT ( 'NONE', #101 ) ;
#150 = VECTOR ( 'NONE', #1, 1000.000000000000000 ) ;
#151 = PERSON_AND_ORGANIZATION ( #105, #147 ) ;
#152 = LOCAL_TIME ( 14, 53, 48.00000000000000000, #59 ) ;
#153 = ORIENTED_EDGE ( 'NONE', *, *, #148, .T. ) ;
#154 = AXIS2_PLACEMENT_3D ( 'NONE', #129, #115, #18 ) ;
#155 = CARTESIAN_POINT ( 'NONE',  ( -12.49999999999999500, -12.50000000000000400, 3.000000000000000000 ) ) ;
#156 = VECTOR ( 'NONE', #131, 1000.000000000000000 ) ;
#157 = VERTEX_POINT ( 'NONE', #99 ) ;
#158 = CARTESIAN_POINT ( 'NONE',  ( 12.49999999999999500, 12.50000000000000000, 0.0000000000000000000 ) ) ;
#159 = CARTESIAN_POINT ( 'NONE',  ( -12.49999999999999800, 12.49999999999999600, 3.000000000000000000 ) ) ;
#160 = ORIENTED_EDGE ( 'NONE', *, *, #33, .F. ) ;
#161 = APPROVAL_STATUS ( 'not_yet_approved' ) ;
#162 = LINE ( 'NONE', #117, #150 ) ;
#163 = FACE_OUTER_BOUND ( 'NONE', #198, .T. ) ;
#164 = APPLICATION_PROTOCOL_DEFINITION ( 'international standard', 'config_control_design', 1994, #188 ) ;
#165 =( NAMED_UNIT ( * ) SI_UNIT ( $, .STERADIAN. ) SOLID_ANGLE_UNIT ( ) );
#166 = ORIENTED_EDGE ( 'NONE', *, *, #30, .T. ) ;
#167 =( LENGTH_UNIT ( ) NAMED_UNIT ( * ) SI_UNIT ( .MILLI., .METRE. ) );
#168 = EDGE_CURVE ( 'NONE', #53, #82, #162, .T. ) ;
#169 = CC_DESIGN_PERSON_AND_ORGANIZATION_ASSIGNMENT ( #112, #120, ( #124 ) ) ;
#170 = FACE_OUTER_BOUND ( 'NONE', #173, .T. ) ;
#171 = CC_DESIGN_SECURITY_CLASSIFICATION ( #73, ( #92 ) ) ;
#172 = VECTOR ( 'NONE', #62, 1000.000000000000000 ) ;
#173 = EDGE_LOOP ( 'NONE', ( #137, #12, #35, #142 ) ) ;
#174 = APPROVAL ( #67, 'UNSPECIFIED' ) ;
#175 = CALENDAR_DATE ( 2017, 31, 1 ) ;
#176 = SHAPE_DEFINITION_REPRESENTATION ( #23, #8 ) ;
#177 = ORIENTED_EDGE ( 'NONE', *, *, #178, .F. ) ;
#178 = EDGE_CURVE ( 'NONE', #53, #61, #25, .T. ) ;
#179 = PLANE ( 'NONE',  #41 ) ;
#180 = CARTESIAN_POINT ( 'NONE',  ( 12.49999999999999500, 12.50000000000000000, 3.000000000000000000 ) ) ;
#181 = VERTEX_POINT ( 'NONE', #134 ) ;
#182 = CARTESIAN_POINT ( 'NONE',  ( 12.50000000000000500, -12.50000000000000000, 3.000000000000000000 ) ) ;
#183 = ADVANCED_FACE ( 'NONE', ( #9 ), #81, .F. ) ;
#184 = PERSON_AND_ORGANIZATION ( #105, #147 ) ;
#185 = EDGE_CURVE ( 'NONE', #181, #111, #207, .T. ) ;
#186 = CALENDAR_DATE ( 2017, 31, 1 ) ;
#187 = EDGE_LOOP ( 'NONE', ( #91, #233, #177, #192 ) ) ;
#188 = APPLICATION_CONTEXT ( 'configuration controlled 3d designs of mechanical parts and assemblies' ) ;
#189 = PERSON_AND_ORGANIZATION ( #105, #147 ) ;
#190 = AXIS2_PLACEMENT_3D ( 'NONE', #201, #116, #52 ) ;
#191 = VECTOR ( 'NONE', #46, 1000.000000000000000 ) ;
#192 = ORIENTED_EDGE ( 'NONE', *, *, #168, .T. ) ;
#193 = CC_DESIGN_DATE_AND_TIME_ASSIGNMENT ( #54, #4, ( #73 ) ) ;
#194 = DIRECTION ( 'NONE',  ( -4.163336342344337000E-016, 1.000000000000000000, -0.0000000000000000000 ) ) ;
#195 = DIRECTION ( 'NONE',  ( -1.000000000000000000, 0.0000000000000000000, -0.0000000000000000000 ) ) ;
#196 = DIRECTION ( 'NONE',  ( -4.163336342344337000E-016, 1.000000000000000000, -0.0000000000000000000 ) ) ;
#197 = COORDINATED_UNIVERSAL_TIME_OFFSET ( 5, 0, .BEHIND. ) ;
#198 = EDGE_LOOP ( 'NONE', ( #166, #210, #228, #17 ) ) ;
#199 = UNCERTAINTY_MEASURE_WITH_UNIT (LENGTH_MEASURE( 1.000000000000000100E-005 ), #167, 'distance_accuracy_value', 'NONE');
#200 = EDGE_CURVE ( 'NONE', #82, #157, #65, .T. ) ;
#201 = CARTESIAN_POINT ( 'NONE',  ( 0.0000000000000000000, 0.0000000000000000000, 0.0000000000000000000 ) ) ;
#202 = DIRECTION ( 'NONE',  ( -0.0000000000000000000, -0.0000000000000000000, -1.000000000000000000 ) ) ;
#203 = ORIENTED_EDGE ( 'NONE', *, *, #55, .T. ) ;
#204 = CC_DESIGN_APPROVAL ( #36, ( #123 ) ) ;
#205 = CARTESIAN_POINT ( 'NONE',  ( 12.49999999999999500, 12.50000000000000000, 3.000000000000000000 ) ) ;
#206 = SECURITY_CLASSIFICATION_LEVEL ( 'unclassified' ) ;
#207 = LINE ( 'NONE', #222, #156 ) ;
#208 = APPROVAL_ROLE ( '' ) ;
#209 = LOCAL_TIME ( 14, 53, 48.00000000000000000, #75 ) ;
#210 = ORIENTED_EDGE ( 'NONE', *, *, #21, .F. ) ;
#211 = AXIS2_PLACEMENT_3D ( 'NONE', #58, #38, #13 ) ;
#212 = ORIENTED_EDGE ( 'NONE', *, *, #126, .T. ) ;
#213 = CARTESIAN_POINT ( 'NONE',  ( 12.49999999999999500, 12.50000000000000000, 0.0000000000000000000 ) ) ;
#214 = CC_DESIGN_DATE_AND_TIME_ASSIGNMENT ( #235, #119, ( #123 ) ) ;
#215 = CARTESIAN_POINT ( 'NONE',  ( -12.49999999999999800, 12.49999999999999600, 0.0000000000000000000 ) ) ;
#216 = VECTOR ( 'NONE', #80, 1000.000000000000000 ) ;
#217 = VECTOR ( 'NONE', #234, 1000.000000000000000 ) ;
#218 = CARTESIAN_POINT ( 'NONE',  ( -12.49999999999999800, 12.49999999999999600, 3.000000000000000000 ) ) ;
#219 = DIRECTION ( 'NONE',  ( 1.000000000000000000, 1.387778780781445900E-016, 0.0000000000000000000 ) ) ;
#220 = DATE_AND_TIME ( #175, #209 ) ;
#221 = LINE ( 'NONE', #215, #217 ) ;
#222 = CARTESIAN_POINT ( 'NONE',  ( 12.49999999999999500, 12.50000000000000000, 3.000000000000000000 ) ) ;
#223 = DIRECTION ( 'NONE',  ( 1.000000000000000000, 1.387778780781445400E-016, -0.0000000000000000000 ) ) ;
#224 = DIRECTION ( 'NONE',  ( 4.163336342344336500E-016, -1.000000000000000000, 0.0000000000000000000 ) ) ;
#225 = CARTESIAN_POINT ( 'NONE',  ( -12.49999999999999500, -12.50000000000000400, 0.0000000000000000000 ) ) ;
#226 = LOCAL_TIME ( 14, 53, 48.00000000000000000, #132 ) ;
#227 = VECTOR ( 'NONE', #194, 1000.000000000000000 ) ;
#228 = ORIENTED_EDGE ( 'NONE', *, *, #148, .F. ) ;
#229 = APPROVAL ( #106, 'UNSPECIFIED' ) ;
#230 = APPROVAL_DATE_TIME ( #220, #174 ) ;
#231 = FACE_OUTER_BOUND ( 'NONE', #187, .T. ) ;
#232 = AXIS2_PLACEMENT_3D ( 'NONE', #63, #223, #144 ) ;
#233 = ORIENTED_EDGE ( 'NONE', *, *, #126, .F. ) ;
#234 = DIRECTION ( 'NONE',  ( 1.387778780781445700E-016, -1.000000000000000000, 0.0000000000000000000 ) ) ;
#235 = DATE_AND_TIME ( #5, #138 ) ;
#236 = AXIS2_PLACEMENT_3D ( 'NONE', #180, #44, #219 ) ;
#237 = ORIENTED_EDGE ( 'NONE', *, *, #33, .T. ) ;
ENDSEC;
END-ISO-10303-21;
