ISO-10303-21;
HEADER;
FILE_DESCRIPTION (( 'STEP AP203' ),
    '1' );
FILE_NAME ('Web Model 46162_46165.step',
    '2017-04-19T19:15:28',
    ( '' ),
    ( '' ),
    'SwSTEP 2.0',
    'SolidWorks 2016',
    '' );
FILE_SCHEMA (( 'CONFIG_CONTROL_DESIGN' ));
ENDSEC;

DATA;
#1 = EDGE_CURVE ( 'NONE', #47, #172, #124, .T. ) ;
#2 = CALENDAR_DATE ( 2017, 19, 4 ) ;
#3 = CIRCLE ( 'NONE', #131, 5.000000000000000000 ) ;
#4 = ORGANIZATION ( 'UNSPECIFIED', 'UNSPECIFIED', '' ) ;
#5 = APPLICATION_CONTEXT ( 'configuration controlled 3d designs of mechanical parts and assemblies' ) ;
#6 = CC_DESIGN_DATE_AND_TIME_ASSIGNMENT ( #158, #16, ( #51 ) ) ;
#7 = DATE_AND_TIME ( #46, #82 ) ;
#8 = DIRECTION ( 'NONE',  ( 1.000000000000000000, 0.0000000000000000000, 0.0000000000000000000 ) ) ;
#9 = DIRECTION ( 'NONE',  ( 1.000000000000000000, 0.0000000000000000000, 0.0000000000000000000 ) ) ;
#10 = VECTOR ( 'NONE', #75, 1000.000000000000000 ) ;
#11 = CARTESIAN_POINT ( 'NONE',  ( -5.000000000000000000, 0.0000000000000000000, 2.500000000000000000 ) ) ;
#12 = CC_DESIGN_PERSON_AND_ORGANIZATION_ASSIGNMENT ( #130, #77, ( #51 ) ) ;
#13 = AXIS2_PLACEMENT_3D ( 'NONE', #95, #119, #169 ) ;
#14 = PERSON_AND_ORGANIZATION ( #91, #4 ) ;
#15 = FACE_OUTER_BOUND ( 'NONE', #61, .T. ) ;
#16 = DATE_TIME_ROLE ( 'creation_date' ) ;
#17 = LOCAL_TIME ( 15, 15, 28.00000000000000000, #60 ) ;
#18 = ORIENTED_EDGE ( 'NONE', *, *, #104, .T. ) ;
#19 = PERSON_AND_ORGANIZATION_ROLE ( 'design_supplier' ) ;
#20 = PRODUCT_DEFINITION_FORMATION_WITH_SPECIFIED_SOURCE ( 'ANY', '', #105, .NOT_KNOWN. ) ;
#21 = PLANE ( 'NONE',  #122 ) ;
#22 = EDGE_CURVE ( 'NONE', #92, #115, #3, .T. ) ;
#23 = CALENDAR_DATE ( 2017, 19, 4 ) ;
#24 = CARTESIAN_POINT ( 'NONE',  ( 0.0000000000000000000, 0.0000000000000000000, 2.500000000000000000 ) ) ;
#25 = ADVANCED_BREP_SHAPE_REPRESENTATION ( 'Web Model 46162_46165', ( #65, #68 ), #113 ) ;
#26 = ORIENTED_EDGE ( 'NONE', *, *, #36, .T. ) ;
#27 = DIRECTION ( 'NONE',  ( -0.0000000000000000000, -0.0000000000000000000, -1.000000000000000000 ) ) ;
#28 = DATE_AND_TIME ( #67, #99 ) ;
#29 = DIRECTION ( 'NONE',  ( -0.0000000000000000000, -0.0000000000000000000, -1.000000000000000000 ) ) ;
#30 = CC_DESIGN_APPROVAL ( #41, ( #51 ) ) ;
#31 = DESIGN_CONTEXT ( 'detailed design', #5, 'design' ) ;
#32 = EDGE_LOOP ( 'NONE', ( #134, #97 ) ) ;
#33 = AXIS2_PLACEMENT_3D ( 'NONE', #140, #90, #74 ) ;
#34 = PERSON_AND_ORGANIZATION ( #91, #4 ) ;
#35 = ORIENTED_EDGE ( 'NONE', *, *, #155, .T. ) ;
#36 = EDGE_CURVE ( 'NONE', #172, #47, #86, .T. ) ;
#37 = APPROVAL_STATUS ( 'not_yet_approved' ) ;
#38 = DIRECTION ( 'NONE',  ( 1.000000000000000000, 0.0000000000000000000, -0.0000000000000000000 ) ) ;
#39 = DIRECTION ( 'NONE',  ( 0.0000000000000000000, 0.0000000000000000000, 1.000000000000000000 ) ) ;
#40 = SECURITY_CLASSIFICATION_LEVEL ( 'unclassified' ) ;
#41 = APPROVAL ( #37, 'UNSPECIFIED' ) ;
#42 = PRODUCT_RELATED_PRODUCT_CATEGORY ( 'detail', '', ( #105 ) ) ;
#43 = LOCAL_TIME ( 15, 15, 28.00000000000000000, #76 ) ;
#44 = CARTESIAN_POINT ( 'NONE',  ( 0.0000000000000000000, 0.0000000000000000000, 2.500000000000000000 ) ) ;
#45 = CYLINDRICAL_SURFACE ( 'NONE', #102, 5.000000000000000000 ) ;
#46 = CALENDAR_DATE ( 2017, 19, 4 ) ;
#47 = VERTEX_POINT ( 'NONE', #81 ) ;
#48 = ADVANCED_FACE ( 'NONE', ( #151 ), #83, .T. ) ;
#49 = FACE_OUTER_BOUND ( 'NONE', #69, .T. ) ;
#50 =( NAMED_UNIT ( * ) PLANE_ANGLE_UNIT ( ) SI_UNIT ( $, .RADIAN. ) );
#51 = PRODUCT_DEFINITION ( 'UNKNOWN', '', #20, #31 ) ;
#52 = PERSON_AND_ORGANIZATION ( #91, #4 ) ;
#53 = CC_DESIGN_SECURITY_CLASSIFICATION ( #136, ( #20 ) ) ;
#54 = ORIENTED_EDGE ( 'NONE', *, *, #1, .T. ) ;
#55 = CARTESIAN_POINT ( 'NONE',  ( -5.000000000000000000, 0.0000000000000000000, 0.0000000000000000000 ) ) ;
#56 = DIRECTION ( 'NONE',  ( -1.000000000000000000, 0.0000000000000000000, 0.0000000000000000000 ) ) ;
#57 = FACE_OUTER_BOUND ( 'NONE', #32, .T. ) ;
#58 = DIRECTION ( 'NONE',  ( 0.0000000000000000000, 0.0000000000000000000, 1.000000000000000000 ) ) ;
#59 = CARTESIAN_POINT ( 'NONE',  ( 0.0000000000000000000, 0.0000000000000000000, 0.0000000000000000000 ) ) ;
#60 = COORDINATED_UNIVERSAL_TIME_OFFSET ( 5, 0, .BEHIND. ) ;
#61 = EDGE_LOOP ( 'NONE', ( #26, #54 ) ) ;
#62 = CC_DESIGN_PERSON_AND_ORGANIZATION_ASSIGNMENT ( #71, #174, ( #105 ) ) ;
#63 = LOCAL_TIME ( 15, 15, 28.00000000000000000, #94 ) ;
#64 = PERSON_AND_ORGANIZATION_ROLE ( 'creator' ) ;
#65 = MANIFOLD_SOLID_BREP ( 'Boss-Extrude1', #139 ) ;
#66 = ORIENTED_EDGE ( 'NONE', *, *, #1, .F. ) ;
#67 = CALENDAR_DATE ( 2017, 19, 4 ) ;
#68 = AXIS2_PLACEMENT_3D ( 'NONE', #138, #160, #9 ) ;
#69 = EDGE_LOOP ( 'NONE', ( #66, #35, #18, #161 ) ) ;
#70 = DIRECTION ( 'NONE',  ( -0.0000000000000000000, -0.0000000000000000000, -1.000000000000000000 ) ) ;
#71 = PERSON_AND_ORGANIZATION ( #91, #4 ) ;
#72 = ADVANCED_FACE ( 'NONE', ( #15 ), #21, .T. ) ;
#73 = PRODUCT_DEFINITION_SHAPE ( 'NONE', 'NONE',  #51 ) ;
#74 = DIRECTION ( 'NONE',  ( 1.000000000000000000, 0.0000000000000000000, 0.0000000000000000000 ) ) ;
#75 = DIRECTION ( 'NONE',  ( -0.0000000000000000000, -0.0000000000000000000, -1.000000000000000000 ) ) ;
#76 = COORDINATED_UNIVERSAL_TIME_OFFSET ( 5, 0, .BEHIND. ) ;
#77 = PERSON_AND_ORGANIZATION_ROLE ( 'creator' ) ;
#78 = DIRECTION ( 'NONE',  ( -1.000000000000000000, 0.0000000000000000000, 0.0000000000000000000 ) ) ;
#79 = LINE ( 'NONE', #11, #145 ) ;
#80 = DIRECTION ( 'NONE',  ( 1.000000000000000000, 0.0000000000000000000, -0.0000000000000000000 ) ) ;
#81 = CARTESIAN_POINT ( 'NONE',  ( 5.000000000000000000, 6.123233995736766300E-016, 2.500000000000000000 ) ) ;
#82 = LOCAL_TIME ( 15, 15, 28.00000000000000000, #117 ) ;
#83 = CYLINDRICAL_SURFACE ( 'NONE', #175, 5.000000000000000000 ) ;
#84 = APPROVAL_DATE_TIME ( #123, #168 ) ;
#85 = DATE_TIME_ROLE ( 'classification_date' ) ;
#86 = CIRCLE ( 'NONE', #152, 5.000000000000000000 ) ;
#87 = APPROVAL_ROLE ( '' ) ;
#88 = APPROVAL_PERSON_ORGANIZATION ( #126, #168, #98 ) ;
#89 =( NAMED_UNIT ( * ) SI_UNIT ( $, .STERADIAN. ) SOLID_ANGLE_UNIT ( ) );
#90 = DIRECTION ( 'NONE',  ( 0.0000000000000000000, 0.0000000000000000000, 1.000000000000000000 ) ) ;
#91 = PERSON ( 'UNSPECIFIED', 'UNSPECIFIED', 'UNSPECIFIED', ('UNSPECIFIED'), ('UNSPECIFIED'), ('UNSPECIFIED') ) ;
#92 = VERTEX_POINT ( 'NONE', #55 ) ;
#93 = AXIS2_PLACEMENT_3D ( 'NONE', #166, #58, #80 ) ;
#94 = COORDINATED_UNIVERSAL_TIME_OFFSET ( 5, 0, .BEHIND. ) ;
#95 = CARTESIAN_POINT ( 'NONE',  ( 0.0000000000000000000, 0.0000000000000000000, 2.500000000000000000 ) ) ;
#96 = CARTESIAN_POINT ( 'NONE',  ( 0.0000000000000000000, 0.0000000000000000000, 2.500000000000000000 ) ) ;
#97 = ORIENTED_EDGE ( 'NONE', *, *, #104, .F. ) ;
#98 = APPROVAL_ROLE ( '' ) ;
#99 = LOCAL_TIME ( 15, 15, 28.00000000000000000, #135 ) ;
#100 = CC_DESIGN_APPROVAL ( #107, ( #136 ) ) ;
#101 = ORIENTED_EDGE ( 'NONE', *, *, #22, .T. ) ;
#102 = AXIS2_PLACEMENT_3D ( 'NONE', #154, #29, #78 ) ;
#103 = CARTESIAN_POINT ( 'NONE',  ( 5.000000000000000000, 6.123233995736766300E-016, 2.500000000000000000 ) ) ;
#104 = EDGE_CURVE ( 'NONE', #115, #92, #156, .T. ) ;
#105 = PRODUCT ( 'Web Model 46162_46165', 'Web Model 46162_46165', '', ( #157 ) ) ;
#106 = APPLICATION_CONTEXT ( 'configuration controlled 3d designs of mechanical parts and assemblies' ) ;
#107 = APPROVAL ( #129, 'UNSPECIFIED' ) ;
#108 = CARTESIAN_POINT ( 'NONE',  ( -5.000000000000000000, 0.0000000000000000000, 2.500000000000000000 ) ) ;
#109 = PLANE ( 'NONE',  #93 ) ;
#110 = APPROVAL_DATE_TIME ( #142, #107 ) ;
#111 = DIRECTION ( 'NONE',  ( 0.0000000000000000000, 0.0000000000000000000, 1.000000000000000000 ) ) ;
#112 = SHAPE_DEFINITION_REPRESENTATION ( #73, #25 ) ;
#113 =( GEOMETRIC_REPRESENTATION_CONTEXT ( 3 ) GLOBAL_UNCERTAINTY_ASSIGNED_CONTEXT ( ( #118 ) ) GLOBAL_UNIT_ASSIGNED_CONTEXT ( ( #137, #50, #89 ) ) REPRESENTATION_CONTEXT ( 'NONE', 'WORKASPACE' ) );
#114 = APPROVAL_PERSON_ORGANIZATION ( #146, #107, #170 ) ;
#115 = VERTEX_POINT ( 'NONE', #132 ) ;
#116 = CC_DESIGN_DATE_AND_TIME_ASSIGNMENT ( #7, #85, ( #136 ) ) ;
#117 = COORDINATED_UNIVERSAL_TIME_OFFSET ( 5, 0, .BEHIND. ) ;
#118 = UNCERTAINTY_MEASURE_WITH_UNIT (LENGTH_MEASURE( 1.000000000000000100E-005 ), #137, 'distance_accuracy_value', 'NONE');
#119 = DIRECTION ( 'NONE',  ( 0.0000000000000000000, 0.0000000000000000000, 1.000000000000000000 ) ) ;
#120 = APPLICATION_PROTOCOL_DEFINITION ( 'international standard', 'config_control_design', 1994, #5 ) ;
#121 = LINE ( 'NONE', #103, #10 ) ;
#122 = AXIS2_PLACEMENT_3D ( 'NONE', #24, #39, #38 ) ;
#123 = DATE_AND_TIME ( #153, #17 ) ;
#124 = CIRCLE ( 'NONE', #13, 5.000000000000000000 ) ;
#125 = CC_DESIGN_PERSON_AND_ORGANIZATION_ASSIGNMENT ( #150, #128, ( #136 ) ) ;
#126 = PERSON_AND_ORGANIZATION ( #91, #4 ) ;
#127 = ORIENTED_EDGE ( 'NONE', *, *, #173, .T. ) ;
#128 = PERSON_AND_ORGANIZATION_ROLE ( 'classification_officer' ) ;
#129 = APPROVAL_STATUS ( 'not_yet_approved' ) ;
#130 = PERSON_AND_ORGANIZATION ( #91, #4 ) ;
#131 = AXIS2_PLACEMENT_3D ( 'NONE', #59, #171, #144 ) ;
#132 = CARTESIAN_POINT ( 'NONE',  ( 5.000000000000000000, 6.123233995736766300E-016, 0.0000000000000000000 ) ) ;
#133 = APPLICATION_PROTOCOL_DEFINITION ( 'international standard', 'config_control_design', 1994, #106 ) ;
#134 = ORIENTED_EDGE ( 'NONE', *, *, #22, .F. ) ;
#135 = COORDINATED_UNIVERSAL_TIME_OFFSET ( 5, 0, .BEHIND. ) ;
#136 = SECURITY_CLASSIFICATION ( '', '', #40 ) ;
#137 =( LENGTH_UNIT ( ) NAMED_UNIT ( * ) SI_UNIT ( .MILLI., .METRE. ) );
#138 = CARTESIAN_POINT ( 'NONE',  ( 0.0000000000000000000, 0.0000000000000000000, 0.0000000000000000000 ) ) ;
#139 = CLOSED_SHELL ( 'NONE', ( #162, #48, #72, #167 ) ) ;
#140 = CARTESIAN_POINT ( 'NONE',  ( 0.0000000000000000000, 0.0000000000000000000, 0.0000000000000000000 ) ) ;
#141 = CC_DESIGN_PERSON_AND_ORGANIZATION_ASSIGNMENT ( #14, #19, ( #20 ) ) ;
#142 = DATE_AND_TIME ( #2, #43 ) ;
#143 = ORIENTED_EDGE ( 'NONE', *, *, #155, .F. ) ;
#144 = DIRECTION ( 'NONE',  ( 1.000000000000000000, 0.0000000000000000000, 0.0000000000000000000 ) ) ;
#145 = VECTOR ( 'NONE', #70, 1000.000000000000000 ) ;
#146 = PERSON_AND_ORGANIZATION ( #91, #4 ) ;
#147 = ORIENTED_EDGE ( 'NONE', *, *, #36, .F. ) ;
#148 = APPROVAL_STATUS ( 'not_yet_approved' ) ;
#149 = CC_DESIGN_PERSON_AND_ORGANIZATION_ASSIGNMENT ( #52, #64, ( #20 ) ) ;
#150 = PERSON_AND_ORGANIZATION ( #91, #4 ) ;
#151 = FACE_OUTER_BOUND ( 'NONE', #164, .T. ) ;
#152 = AXIS2_PLACEMENT_3D ( 'NONE', #96, #111, #8 ) ;
#153 = CALENDAR_DATE ( 2017, 19, 4 ) ;
#154 = CARTESIAN_POINT ( 'NONE',  ( 0.0000000000000000000, 0.0000000000000000000, 2.500000000000000000 ) ) ;
#155 = EDGE_CURVE ( 'NONE', #47, #115, #121, .T. ) ;
#156 = CIRCLE ( 'NONE', #33, 5.000000000000000000 ) ;
#157 = MECHANICAL_CONTEXT ( 'NONE', #106, 'mechanical' ) ;
#158 = DATE_AND_TIME ( #23, #63 ) ;
#159 = CC_DESIGN_APPROVAL ( #168, ( #20 ) ) ;
#160 = DIRECTION ( 'NONE',  ( 0.0000000000000000000, 0.0000000000000000000, 1.000000000000000000 ) ) ;
#161 = ORIENTED_EDGE ( 'NONE', *, *, #173, .F. ) ;
#162 = ADVANCED_FACE ( 'NONE', ( #49 ), #45, .T. ) ;
#163 = APPROVAL_DATE_TIME ( #28, #41 ) ;
#164 = EDGE_LOOP ( 'NONE', ( #143, #147, #127, #101 ) ) ;
#165 = APPROVAL_PERSON_ORGANIZATION ( #34, #41, #87 ) ;
#166 = CARTESIAN_POINT ( 'NONE',  ( 0.0000000000000000000, 0.0000000000000000000, 0.0000000000000000000 ) ) ;
#167 = ADVANCED_FACE ( 'NONE', ( #57 ), #109, .F. ) ;
#168 = APPROVAL ( #148, 'UNSPECIFIED' ) ;
#169 = DIRECTION ( 'NONE',  ( 1.000000000000000000, 0.0000000000000000000, 0.0000000000000000000 ) ) ;
#170 = APPROVAL_ROLE ( '' ) ;
#171 = DIRECTION ( 'NONE',  ( 0.0000000000000000000, 0.0000000000000000000, 1.000000000000000000 ) ) ;
#172 = VERTEX_POINT ( 'NONE', #108 ) ;
#173 = EDGE_CURVE ( 'NONE', #172, #92, #79, .T. ) ;
#174 = PERSON_AND_ORGANIZATION_ROLE ( 'design_owner' ) ;
#175 = AXIS2_PLACEMENT_3D ( 'NONE', #44, #27, #56 ) ;
ENDSEC;
END-ISO-10303-21;
