ISO-10303-21;
HEADER;
FILE_DESCRIPTION (( 'STEP AP203' ),
    '1' );
FILE_NAME ('47193_48064.step',
    '2018-01-22T13:11:44',
    ( '' ),
    ( '' ),
    'SwSTEP 2.0',
    'SolidWorks 2016',
    '' );
FILE_SCHEMA (( 'CONFIG_CONTROL_DESIGN' ));
ENDSEC;

DATA;
#1 = ADVANCED_FACE ( 'NONE', ( #83 ), #137, .T. ) ;
#2 = DIRECTION ( 'NONE',  ( 0.0000000000000000000, 0.0000000000000000000, 1.000000000000000000 ) ) ;
#3 = CARTESIAN_POINT ( 'NONE',  ( 6.249999999999998200, 0.0000000000000000000, -1.500000000000000000 ) ) ;
#4 = ORIENTED_EDGE ( 'NONE', *, *, #82, .T. ) ;
#5 = AXIS2_PLACEMENT_3D ( 'NONE', #142, #71, #30 ) ;
#6 = PERSON_AND_ORGANIZATION ( #51, #102 ) ;
#7 = EDGE_LOOP ( 'NONE', ( #60, #129 ) ) ;
#8 = APPROVAL_ROLE ( '' ) ;
#9 = CC_DESIGN_DATE_AND_TIME_ASSIGNMENT ( #171, #37, ( #45 ) ) ;
#10 = LINE ( 'NONE', #13, #78 ) ;
#11 = APPROVAL_ROLE ( '' ) ;
#12 = AXIS2_PLACEMENT_3D ( 'NONE', #44, #73, #88 ) ;
#13 = CARTESIAN_POINT ( 'NONE',  ( -6.249999999999998200, 7.654042494670955600E-016, -1.500000000000000000 ) ) ;
#14 = DIRECTION ( 'NONE',  ( 1.000000000000000000, 0.0000000000000000000, 0.0000000000000000000 ) ) ;
#15 = DIRECTION ( 'NONE',  ( 1.000000000000000000, 0.0000000000000000000, 0.0000000000000000000 ) ) ;
#16 = CARTESIAN_POINT ( 'NONE',  ( -6.249999999999998200, 7.654042494670955600E-016, -1.500000000000000000 ) ) ;
#17 = APPROVAL_DATE_TIME ( #128, #85 ) ;
#18 = PRODUCT_DEFINITION_FORMATION_WITH_SPECIFIED_SOURCE ( 'ANY', '', #66, .NOT_KNOWN. ) ;
#19 = DATE_AND_TIME ( #23, #149 ) ;
#20 = AXIS2_PLACEMENT_3D ( 'NONE', #40, #138, #109 ) ;
#21 = ORIENTED_EDGE ( 'NONE', *, *, #90, .T. ) ;
#22 = SECURITY_CLASSIFICATION_LEVEL ( 'unclassified' ) ;
#23 = CALENDAR_DATE ( 2018, 22, 1 ) ;
#24 = APPLICATION_PROTOCOL_DEFINITION ( 'international standard', 'config_control_design', 1994, #43 ) ;
#25 = APPROVAL_PERSON_ORGANIZATION ( #104, #100, #11 ) ;
#26 = CC_DESIGN_APPROVAL ( #133, ( #18 ) ) ;
#27 = CARTESIAN_POINT ( 'NONE',  ( 0.0000000000000000000, 0.0000000000000000000, -1.500000000000000000 ) ) ;
#28 = DIRECTION ( 'NONE',  ( 1.000000000000000000, 0.0000000000000000000, 0.0000000000000000000 ) ) ;
#29 = PERSON_AND_ORGANIZATION_ROLE ( 'design_owner' ) ;
#30 = DIRECTION ( 'NONE',  ( 1.000000000000000000, 0.0000000000000000000, 0.0000000000000000000 ) ) ;
#31 = AXIS2_PLACEMENT_3D ( 'NONE', #59, #163, #14 ) ;
#32 = COORDINATED_UNIVERSAL_TIME_OFFSET ( 5, 0, .BEHIND. ) ;
#33 = EDGE_LOOP ( 'NONE', ( #94, #21 ) ) ;
#34 = CC_DESIGN_APPROVAL ( #100, ( #45 ) ) ;
#35 = DESIGN_CONTEXT ( 'detailed design', #43, 'design' ) ;
#36 = CC_DESIGN_PERSON_AND_ORGANIZATION_ASSIGNMENT ( #61, #158, ( #18 ) ) ;
#37 = DATE_TIME_ROLE ( 'creation_date' ) ;
#38 = AXIS2_PLACEMENT_3D ( 'NONE', #139, #42, #28 ) ;
#39 = APPROVAL_DATE_TIME ( #19, #133 ) ;
#40 = CARTESIAN_POINT ( 'NONE',  ( 0.0000000000000000000, 0.0000000000000000000, 0.0000000000000000000 ) ) ;
#41 = CLOSED_SHELL ( 'NONE', ( #162, #110, #56, #1 ) ) ;
#42 = DIRECTION ( 'NONE',  ( 0.0000000000000000000, 0.0000000000000000000, 1.000000000000000000 ) ) ;
#43 = APPLICATION_CONTEXT ( 'configuration controlled 3d designs of mechanical parts and assemblies' ) ;
#44 = CARTESIAN_POINT ( 'NONE',  ( 0.0000000000000000000, 0.0000000000000000000, -1.500000000000000000 ) ) ;
#45 = PRODUCT_DEFINITION ( 'UNKNOWN', '', #18, #35 ) ;
#46 = ORIENTED_EDGE ( 'NONE', *, *, #126, .T. ) ;
#47 = COORDINATED_UNIVERSAL_TIME_OFFSET ( 5, 0, .BEHIND. ) ;
#48 = CC_DESIGN_PERSON_AND_ORGANIZATION_ASSIGNMENT ( #160, #145, ( #18 ) ) ;
#49 = AXIS2_PLACEMENT_3D ( 'NONE', #27, #124, #58 ) ;
#50 = CIRCLE ( 'NONE', #5, 6.249999999999998200 ) ;
#51 = PERSON ( 'UNSPECIFIED', 'UNSPECIFIED', 'UNSPECIFIED', ('UNSPECIFIED'), ('UNSPECIFIED'), ('UNSPECIFIED') ) ;
#52 = LOCAL_TIME ( 8, 11, 44.00000000000000000, #119 ) ;
#53 = DIRECTION ( 'NONE',  ( 0.0000000000000000000, 0.0000000000000000000, 1.000000000000000000 ) ) ;
#54 = SHAPE_DEFINITION_REPRESENTATION ( #67, #106 ) ;
#55 = SECURITY_CLASSIFICATION ( '', '', #22 ) ;
#56 = ADVANCED_FACE ( 'NONE', ( #79 ), #155, .F. ) ;
#57 = LOCAL_TIME ( 8, 11, 44.00000000000000000, #32 ) ;
#58 = DIRECTION ( 'NONE',  ( 1.000000000000000000, 0.0000000000000000000, 0.0000000000000000000 ) ) ;
#59 = CARTESIAN_POINT ( 'NONE',  ( 0.0000000000000000000, 0.0000000000000000000, 0.0000000000000000000 ) ) ;
#60 = ORIENTED_EDGE ( 'NONE', *, *, #126, .F. ) ;
#61 = PERSON_AND_ORGANIZATION ( #51, #102 ) ;
#62 = ORIENTED_EDGE ( 'NONE', *, *, #74, .T. ) ;
#63 = CALENDAR_DATE ( 2018, 22, 1 ) ;
#64 = CC_DESIGN_PERSON_AND_ORGANIZATION_ASSIGNMENT ( #108, #131, ( #55 ) ) ;
#65 = ORIENTED_EDGE ( 'NONE', *, *, #146, .F. ) ;
#66 = PRODUCT ( '47193_48064', '47193_48064', '', ( #123 ) ) ;
#67 = PRODUCT_DEFINITION_SHAPE ( 'NONE', 'NONE',  #45 ) ;
#68 =( GEOMETRIC_REPRESENTATION_CONTEXT ( 3 ) GLOBAL_UNCERTAINTY_ASSIGNED_CONTEXT ( ( #148 ) ) GLOBAL_UNIT_ASSIGNED_CONTEXT ( ( #70, #154, #87 ) ) REPRESENTATION_CONTEXT ( 'NONE', 'WORKASPACE' ) );
#69 = APPROVAL_DATE_TIME ( #166, #100 ) ;
#70 =( LENGTH_UNIT ( ) NAMED_UNIT ( * ) SI_UNIT ( .MILLI., .METRE. ) );
#71 = DIRECTION ( 'NONE',  ( 0.0000000000000000000, 0.0000000000000000000, 1.000000000000000000 ) ) ;
#72 = APPROVAL_STATUS ( 'not_yet_approved' ) ;
#73 = DIRECTION ( 'NONE',  ( 0.0000000000000000000, 0.0000000000000000000, 1.000000000000000000 ) ) ;
#74 = EDGE_CURVE ( 'NONE', #81, #75, #84, .T. ) ;
#75 = VERTEX_POINT ( 'NONE', #153 ) ;
#76 = CALENDAR_DATE ( 2018, 22, 1 ) ;
#77 = CC_DESIGN_DATE_AND_TIME_ASSIGNMENT ( #157, #170, ( #55 ) ) ;
#78 = VECTOR ( 'NONE', #53, 1000.000000000000000 ) ;
#79 = FACE_OUTER_BOUND ( 'NONE', #7, .T. ) ;
#80 = AXIS2_PLACEMENT_3D ( 'NONE', #112, #2, #97 ) ;
#81 = VERTEX_POINT ( 'NONE', #3 ) ;
#82 = EDGE_CURVE ( 'NONE', #161, #81, #50, .T. ) ;
#83 = FACE_OUTER_BOUND ( 'NONE', #33, .T. ) ;
#84 = LINE ( 'NONE', #121, #115 ) ;
#85 = APPROVAL ( #72, 'UNSPECIFIED' ) ;
#86 = DIRECTION ( 'NONE',  ( 0.0000000000000000000, 0.0000000000000000000, 1.000000000000000000 ) ) ;
#87 =( NAMED_UNIT ( * ) SI_UNIT ( $, .STERADIAN. ) SOLID_ANGLE_UNIT ( ) );
#88 = DIRECTION ( 'NONE',  ( 1.000000000000000000, 0.0000000000000000000, -0.0000000000000000000 ) ) ;
#89 = AXIS2_PLACEMENT_3D ( 'NONE', #141, #86, #15 ) ;
#90 = EDGE_CURVE ( 'NONE', #150, #75, #169, .T. ) ;
#91 = PERSON_AND_ORGANIZATION ( #51, #102 ) ;
#92 = PERSON_AND_ORGANIZATION ( #51, #102 ) ;
#93 = CC_DESIGN_APPROVAL ( #85, ( #55 ) ) ;
#94 = ORIENTED_EDGE ( 'NONE', *, *, #146, .T. ) ;
#95 = CARTESIAN_POINT ( 'NONE',  ( -6.249999999999998200, 7.654042494670955600E-016, 0.0000000000000000000 ) ) ;
#96 = APPROVAL_PERSON_ORGANIZATION ( #6, #133, #8 ) ;
#97 = DIRECTION ( 'NONE',  ( 1.000000000000000000, 0.0000000000000000000, 0.0000000000000000000 ) ) ;
#98 = APPLICATION_PROTOCOL_DEFINITION ( 'international standard', 'config_control_design', 1994, #113 ) ;
#99 = DIRECTION ( 'NONE',  ( 0.0000000000000000000, 0.0000000000000000000, 1.000000000000000000 ) ) ;
#100 = APPROVAL ( #120, 'UNSPECIFIED' ) ;
#101 = CC_DESIGN_SECURITY_CLASSIFICATION ( #55, ( #18 ) ) ;
#102 = ORGANIZATION ( 'UNSPECIFIED', 'UNSPECIFIED', '' ) ;
#103 = CALENDAR_DATE ( 2018, 22, 1 ) ;
#104 = PERSON_AND_ORGANIZATION ( #51, #102 ) ;
#105 = PERSON_AND_ORGANIZATION_ROLE ( 'creator' ) ;
#106 = ADVANCED_BREP_SHAPE_REPRESENTATION ( '47193_48064', ( #174, #89 ), #68 ) ;
#107 = CIRCLE ( 'NONE', #38, 6.249999999999998200 ) ;
#108 = PERSON_AND_ORGANIZATION ( #51, #102 ) ;
#109 = DIRECTION ( 'NONE',  ( 1.000000000000000000, 0.0000000000000000000, 0.0000000000000000000 ) ) ;
#110 = ADVANCED_FACE ( 'NONE', ( #147 ), #164, .T. ) ;
#111 = PRODUCT_RELATED_PRODUCT_CATEGORY ( 'detail', '', ( #66 ) ) ;
#112 = CARTESIAN_POINT ( 'NONE',  ( 0.0000000000000000000, 0.0000000000000000000, -1.500000000000000000 ) ) ;
#113 = APPLICATION_CONTEXT ( 'configuration controlled 3d designs of mechanical parts and assemblies' ) ;
#114 = CARTESIAN_POINT ( 'NONE',  ( 0.0000000000000000000, 0.0000000000000000000, 0.0000000000000000000 ) ) ;
#115 = VECTOR ( 'NONE', #140, 1000.000000000000000 ) ;
#116 = CALENDAR_DATE ( 2018, 22, 1 ) ;
#117 = EDGE_LOOP ( 'NONE', ( #46, #167, #65, #172 ) ) ;
#118 = EDGE_CURVE ( 'NONE', #161, #150, #10, .T. ) ;
#119 = COORDINATED_UNIVERSAL_TIME_OFFSET ( 5, 0, .BEHIND. ) ;
#120 = APPROVAL_STATUS ( 'not_yet_approved' ) ;
#121 = CARTESIAN_POINT ( 'NONE',  ( 6.249999999999998200, 0.0000000000000000000, -1.500000000000000000 ) ) ;
#122 = PERSON_AND_ORGANIZATION ( #51, #102 ) ;
#123 = MECHANICAL_CONTEXT ( 'NONE', #113, 'mechanical' ) ;
#124 = DIRECTION ( 'NONE',  ( 0.0000000000000000000, 0.0000000000000000000, 1.000000000000000000 ) ) ;
#125 = LOCAL_TIME ( 8, 11, 44.00000000000000000, #132 ) ;
#126 = EDGE_CURVE ( 'NONE', #81, #161, #107, .T. ) ;
#127 = ORIENTED_EDGE ( 'NONE', *, *, #118, .F. ) ;
#128 = DATE_AND_TIME ( #116, #52 ) ;
#129 = ORIENTED_EDGE ( 'NONE', *, *, #82, .F. ) ;
#130 = FACE_OUTER_BOUND ( 'NONE', #117, .T. ) ;
#131 = PERSON_AND_ORGANIZATION_ROLE ( 'classification_officer' ) ;
#132 = COORDINATED_UNIVERSAL_TIME_OFFSET ( 5, 0, .BEHIND. ) ;
#133 = APPROVAL ( #144, 'UNSPECIFIED' ) ;
#134 = CC_DESIGN_PERSON_AND_ORGANIZATION_ASSIGNMENT ( #122, #29, ( #66 ) ) ;
#135 = CIRCLE ( 'NONE', #31, 6.249999999999998200 ) ;
#136 = COORDINATED_UNIVERSAL_TIME_OFFSET ( 5, 0, .BEHIND. ) ;
#137 = PLANE ( 'NONE',  #168 ) ;
#138 = DIRECTION ( 'NONE',  ( 0.0000000000000000000, 0.0000000000000000000, 1.000000000000000000 ) ) ;
#139 = CARTESIAN_POINT ( 'NONE',  ( 0.0000000000000000000, 0.0000000000000000000, -1.500000000000000000 ) ) ;
#140 = DIRECTION ( 'NONE',  ( 0.0000000000000000000, 0.0000000000000000000, 1.000000000000000000 ) ) ;
#141 = CARTESIAN_POINT ( 'NONE',  ( 0.0000000000000000000, 0.0000000000000000000, 0.0000000000000000000 ) ) ;
#142 = CARTESIAN_POINT ( 'NONE',  ( 0.0000000000000000000, 0.0000000000000000000, -1.500000000000000000 ) ) ;
#143 = LOCAL_TIME ( 8, 11, 44.00000000000000000, #47 ) ;
#144 = APPROVAL_STATUS ( 'not_yet_approved' ) ;
#145 = PERSON_AND_ORGANIZATION_ROLE ( 'design_supplier' ) ;
#146 = EDGE_CURVE ( 'NONE', #75, #150, #135, .T. ) ;
#147 = FACE_OUTER_BOUND ( 'NONE', #173, .T. ) ;
#148 = UNCERTAINTY_MEASURE_WITH_UNIT (LENGTH_MEASURE( 1.000000000000000100E-005 ), #70, 'distance_accuracy_value', 'NONE');
#149 = LOCAL_TIME ( 8, 11, 44.00000000000000000, #136 ) ;
#150 = VERTEX_POINT ( 'NONE', #95 ) ;
#151 = CYLINDRICAL_SURFACE ( 'NONE', #80, 6.249999999999998200 ) ;
#152 = APPROVAL_PERSON_ORGANIZATION ( #91, #85, #165 ) ;
#153 = CARTESIAN_POINT ( 'NONE',  ( 6.249999999999998200, 0.0000000000000000000, 0.0000000000000000000 ) ) ;
#154 =( NAMED_UNIT ( * ) PLANE_ANGLE_UNIT ( ) SI_UNIT ( $, .RADIAN. ) );
#155 = PLANE ( 'NONE',  #12 ) ;
#156 = DIRECTION ( 'NONE',  ( 1.000000000000000000, 0.0000000000000000000, -0.0000000000000000000 ) ) ;
#157 = DATE_AND_TIME ( #76, #125 ) ;
#158 = PERSON_AND_ORGANIZATION_ROLE ( 'creator' ) ;
#159 = ORIENTED_EDGE ( 'NONE', *, *, #90, .F. ) ;
#160 = PERSON_AND_ORGANIZATION ( #51, #102 ) ;
#161 = VERTEX_POINT ( 'NONE', #16 ) ;
#162 = ADVANCED_FACE ( 'NONE', ( #130 ), #151, .T. ) ;
#163 = DIRECTION ( 'NONE',  ( 0.0000000000000000000, 0.0000000000000000000, 1.000000000000000000 ) ) ;
#164 = CYLINDRICAL_SURFACE ( 'NONE', #49, 6.249999999999998200 ) ;
#165 = APPROVAL_ROLE ( '' ) ;
#166 = DATE_AND_TIME ( #103, #143 ) ;
#167 = ORIENTED_EDGE ( 'NONE', *, *, #118, .T. ) ;
#168 = AXIS2_PLACEMENT_3D ( 'NONE', #114, #99, #156 ) ;
#169 = CIRCLE ( 'NONE', #20, 6.249999999999998200 ) ;
#170 = DATE_TIME_ROLE ( 'classification_date' ) ;
#171 = DATE_AND_TIME ( #63, #57 ) ;
#172 = ORIENTED_EDGE ( 'NONE', *, *, #74, .F. ) ;
#173 = EDGE_LOOP ( 'NONE', ( #127, #4, #62, #159 ) ) ;
#174 = MANIFOLD_SOLID_BREP ( 'Boss-Extrude1', #41 ) ;
#175 = CC_DESIGN_PERSON_AND_ORGANIZATION_ASSIGNMENT ( #92, #105, ( #45 ) ) ;
ENDSEC;
END-ISO-10303-21;
