ISO-10303-21;
HEADER;
FILE_DESCRIPTION (( 'STEP AP203' ),
    '1' );
FILE_NAME ('Web Model 68740.STEP',
    '2017-02-01T13:32:41',
    ( '' ),
    ( '' ),
    'SwSTEP 2.0',
    'SolidWorks 2016',
    '' );
FILE_SCHEMA (( 'CONFIG_CONTROL_DESIGN' ));
ENDSEC;

DATA;
#1 = CIRCLE ( 'NONE', #93, 25.00000000000000000 ) ;
#2 = COORDINATED_UNIVERSAL_TIME_OFFSET ( 5, 0, .BEHIND. ) ;
#3 = EDGE_LOOP ( 'NONE', ( #103, #94, #90, #76 ) ) ;
#4 = EDGE_CURVE ( 'NONE', #41, #141, #56, .T. ) ;
#5 = LOCAL_TIME ( 8, 32, 41.00000000000000000, #37 ) ;
#6 = MANIFOLD_SOLID_BREP ( 'Extrude1', #15 ) ;
#7 = DIRECTION ( 'NONE',  ( -1.000000000000000000, -0.0000000000000000000, -0.0000000000000000000 ) ) ;
#8 = DIRECTION ( 'NONE',  ( 1.000000000000000000, 0.0000000000000000000, 0.0000000000000000000 ) ) ;
#9 = COORDINATED_UNIVERSAL_TIME_OFFSET ( 5, 0, .BEHIND. ) ;
#10 = PLANE ( 'NONE',  #102 ) ;
#11 = CALENDAR_DATE ( 2017, 1, 2 ) ;
#12 = DATE_TIME_ROLE ( 'creation_date' ) ;
#13 = DATE_AND_TIME ( #112, #80 ) ;
#14 = CC_DESIGN_PERSON_AND_ORGANIZATION_ASSIGNMENT ( #49, #175, ( #61 ) ) ;
#15 = CLOSED_SHELL ( 'NONE', ( #157, #118, #52, #63 ) ) ;
#16 = DIRECTION ( 'NONE',  ( 0.0000000000000000000, 0.0000000000000000000, -1.000000000000000000 ) ) ;
#17 = PLANE ( 'NONE',  #121 ) ;
#18 = DIRECTION ( 'NONE',  ( -1.000000000000000000, -0.0000000000000000000, -0.0000000000000000000 ) ) ;
#19 = EDGE_CURVE ( 'NONE', #161, #41, #136, .T. ) ;
#20 = FACE_OUTER_BOUND ( 'NONE', #50, .T. ) ;
#21 = CARTESIAN_POINT ( 'NONE',  ( 0.0000000000000000000, 0.0000000000000000000, 0.0000000000000000000 ) ) ;
#22 = APPROVAL_STATUS ( 'not_yet_approved' ) ;
#23 = CC_DESIGN_APPROVAL ( #81, ( #119 ) ) ;
#24 = DATE_AND_TIME ( #51, #91 ) ;
#25 = CC_DESIGN_DATE_AND_TIME_ASSIGNMENT ( #149, #12, ( #30 ) ) ;
#26 = PERSON_AND_ORGANIZATION_ROLE ( 'classification_officer' ) ;
#27 = PERSON ( 'UNSPECIFIED', 'UNSPECIFIED', 'UNSPECIFIED', ('UNSPECIFIED'), ('UNSPECIFIED'), ('UNSPECIFIED') ) ;
#28 = LINE ( 'NONE', #170, #129 ) ;
#29 = EDGE_CURVE ( 'NONE', #171, #141, #28, .T. ) ;
#30 = PRODUCT_DEFINITION ( 'UNKNOWN', '', #39, #89 ) ;
#31 = CARTESIAN_POINT ( 'NONE',  ( 3.000000000000000000, 0.0000000000000000000, 0.0000000000000000000 ) ) ;
#32 = FACE_OUTER_BOUND ( 'NONE', #155, .T. ) ;
#33 = PERSON_AND_ORGANIZATION ( #27, #86 ) ;
#34 = APPLICATION_PROTOCOL_DEFINITION ( 'international standard', 'config_control_design', 1994, #47 ) ;
#35 = ORIENTED_EDGE ( 'NONE', *, *, #29, .F. ) ;
#36 = AXIS2_PLACEMENT_3D ( 'NONE', #55, #128, #84 ) ;
#37 = COORDINATED_UNIVERSAL_TIME_OFFSET ( 5, 0, .BEHIND. ) ;
#38 = PERSON_AND_ORGANIZATION ( #27, #86 ) ;
#39 = PRODUCT_DEFINITION_FORMATION_WITH_SPECIFIED_SOURCE ( 'ANY', '', #61, .NOT_KNOWN. ) ;
#40 = APPROVAL_DATE_TIME ( #153, #174 ) ;
#41 = VERTEX_POINT ( 'NONE', #140 ) ;
#42 = DIRECTION ( 'NONE',  ( 0.0000000000000000000, 0.0000000000000000000, -1.000000000000000000 ) ) ;
#43 = APPLICATION_PROTOCOL_DEFINITION ( 'international standard', 'config_control_design', 1994, #82 ) ;
#44 = COORDINATED_UNIVERSAL_TIME_OFFSET ( 5, 0, .BEHIND. ) ;
#45 = CARTESIAN_POINT ( 'NONE',  ( 3.000000000000000000, 0.0000000000000000000, 0.0000000000000000000 ) ) ;
#46 = PRODUCT_RELATED_PRODUCT_CATEGORY ( 'detail', '', ( #61 ) ) ;
#47 = APPLICATION_CONTEXT ( 'configuration controlled 3d designs of mechanical parts and assemblies' ) ;
#48 = AXIS2_PLACEMENT_3D ( 'NONE', #45, #162, #42 ) ;
#49 = PERSON_AND_ORGANIZATION ( #27, #86 ) ;
#50 = EDGE_LOOP ( 'NONE', ( #132, #88 ) ) ;
#51 = CALENDAR_DATE ( 2017, 1, 2 ) ;
#52 = ADVANCED_FACE ( 'NONE', ( #32 ), #10, .T. ) ;
#53 = ORIENTED_EDGE ( 'NONE', *, *, #152, .T. ) ;
#54 = AXIS2_PLACEMENT_3D ( 'NONE', #21, #126, #158 ) ;
#55 = CARTESIAN_POINT ( 'NONE',  ( 0.0000000000000000000, 0.0000000000000000000, 0.0000000000000000000 ) ) ;
#56 = CIRCLE ( 'NONE', #124, 25.00000000000000000 ) ;
#57 = CARTESIAN_POINT ( 'NONE',  ( 3.000000000000000000, 0.0000000000000000000, 0.0000000000000000000 ) ) ;
#58 = CARTESIAN_POINT ( 'NONE',  ( 3.000000000000000000, 0.0000000000000000000, 0.0000000000000000000 ) ) ;
#59 = APPROVAL_STATUS ( 'not_yet_approved' ) ;
#60 = SECURITY_CLASSIFICATION_LEVEL ( 'unclassified' ) ;
#61 = PRODUCT ( 'Web Model 68740', 'Web Model 68740', '', ( #145 ) ) ;
#62 = ORIENTED_EDGE ( 'NONE', *, *, #4, .T. ) ;
#63 = ADVANCED_FACE ( 'NONE', ( #20 ), #17, .F. ) ;
#64 = APPROVAL ( #73, 'UNSPECIFIED' ) ;
#65 = ORIENTED_EDGE ( 'NONE', *, *, #19, .T. ) ;
#66 = PERSON_AND_ORGANIZATION ( #27, #86 ) ;
#67 = DIRECTION ( 'NONE',  ( -1.000000000000000000, -0.0000000000000000000, -0.0000000000000000000 ) ) ;
#68 = FACE_OUTER_BOUND ( 'NONE', #165, .T. ) ;
#69 = CARTESIAN_POINT ( 'NONE',  ( 0.0000000000000000000, 0.0000000000000000000, 0.0000000000000000000 ) ) ;
#70 = PERSON_AND_ORGANIZATION ( #27, #86 ) ;
#71 = DIRECTION ( 'NONE',  ( 1.000000000000000000, 0.0000000000000000000, 0.0000000000000000000 ) ) ;
#72 = CC_DESIGN_PERSON_AND_ORGANIZATION_ASSIGNMENT ( #106, #101, ( #39 ) ) ;
#73 = APPROVAL_STATUS ( 'not_yet_approved' ) ;
#74 = EDGE_CURVE ( 'NONE', #141, #41, #115, .T. ) ;
#75 = LOCAL_TIME ( 8, 32, 41.00000000000000000, #44 ) ;
#76 = ORIENTED_EDGE ( 'NONE', *, *, #19, .F. ) ;
#77 = APPROVAL_PERSON_ORGANIZATION ( #120, #81, #173 ) ;
#78 = CALENDAR_DATE ( 2017, 1, 2 ) ;
#79 = COORDINATED_UNIVERSAL_TIME_OFFSET ( 5, 0, .BEHIND. ) ;
#80 = LOCAL_TIME ( 8, 32, 41.00000000000000000, #79 ) ;
#81 = APPROVAL ( #22, 'UNSPECIFIED' ) ;
#82 = APPLICATION_CONTEXT ( 'configuration controlled 3d designs of mechanical parts and assemblies' ) ;
#83 = EDGE_CURVE ( 'NONE', #161, #171, #110, .T. ) ;
#84 = DIRECTION ( 'NONE',  ( 0.0000000000000000000, 0.0000000000000000000, -1.000000000000000000 ) ) ;
#85 = DIRECTION ( 'NONE',  ( 0.0000000000000000000, 0.0000000000000000000, 1.000000000000000000 ) ) ;
#86 = ORGANIZATION ( 'UNSPECIFIED', 'UNSPECIFIED', '' ) ;
#87 = CARTESIAN_POINT ( 'NONE',  ( 3.000000000000000000, 0.0000000000000000000, 25.00000000000000000 ) ) ;
#88 = ORIENTED_EDGE ( 'NONE', *, *, #74, .F. ) ;
#89 = DESIGN_CONTEXT ( 'detailed design', #47, 'design' ) ;
#90 = ORIENTED_EDGE ( 'NONE', *, *, #74, .T. ) ;
#91 = LOCAL_TIME ( 8, 32, 41.00000000000000000, #2 ) ;
#92 = CC_DESIGN_APPROVAL ( #64, ( #39 ) ) ;
#93 = AXIS2_PLACEMENT_3D ( 'NONE', #58, #71, #16 ) ;
#94 = ORIENTED_EDGE ( 'NONE', *, *, #29, .T. ) ;
#95 = SHAPE_DEFINITION_REPRESENTATION ( #163, #122 ) ;
#96 = CARTESIAN_POINT ( 'NONE',  ( 3.000000000000000000, 0.0000000000000000000, 0.0000000000000000000 ) ) ;
#97 = CARTESIAN_POINT ( 'NONE',  ( 3.000000000000000000, 3.061616997868383000E-015, -25.00000000000000000 ) ) ;
#98 =( NAMED_UNIT ( * ) PLANE_ANGLE_UNIT ( ) SI_UNIT ( $, .RADIAN. ) );
#99 = APPROVAL_ROLE ( '' ) ;
#100 = CC_DESIGN_SECURITY_CLASSIFICATION ( #119, ( #39 ) ) ;
#101 = PERSON_AND_ORGANIZATION_ROLE ( 'design_supplier' ) ;
#102 = AXIS2_PLACEMENT_3D ( 'NONE', #57, #107, #108 ) ;
#103 = ORIENTED_EDGE ( 'NONE', *, *, #152, .F. ) ;
#104 = CALENDAR_DATE ( 2017, 1, 2 ) ;
#105 = APPROVAL_PERSON_ORGANIZATION ( #33, #64, #99 ) ;
#106 = PERSON_AND_ORGANIZATION ( #27, #86 ) ;
#107 = DIRECTION ( 'NONE',  ( 1.000000000000000000, 0.0000000000000000000, 0.0000000000000000000 ) ) ;
#108 = DIRECTION ( 'NONE',  ( 0.0000000000000000000, 0.0000000000000000000, -1.000000000000000000 ) ) ;
#109 = APPROVAL_PERSON_ORGANIZATION ( #70, #174, #147 ) ;
#110 = CIRCLE ( 'NONE', #48, 25.00000000000000000 ) ;
#111 = APPROVAL_DATE_TIME ( #154, #64 ) ;
#112 = CALENDAR_DATE ( 2017, 1, 2 ) ;
#113 = PERSON_AND_ORGANIZATION_ROLE ( 'creator' ) ;
#114 = DATE_TIME_ROLE ( 'classification_date' ) ;
#115 = CIRCLE ( 'NONE', #36, 25.00000000000000000 ) ;
#116 = PERSON_AND_ORGANIZATION ( #27, #86 ) ;
#117 = ORIENTED_EDGE ( 'NONE', *, *, #83, .F. ) ;
#118 = ADVANCED_FACE ( 'NONE', ( #68 ), #167, .T. ) ;
#119 = SECURITY_CLASSIFICATION ( '', '', #60 ) ;
#120 = PERSON_AND_ORGANIZATION ( #27, #86 ) ;
#121 = AXIS2_PLACEMENT_3D ( 'NONE', #69, #159, #144 ) ;
#122 = ADVANCED_BREP_SHAPE_REPRESENTATION ( 'Web Model 68740', ( #6, #54 ), #166 ) ;
#123 = ORIENTED_EDGE ( 'NONE', *, *, #83, .T. ) ;
#124 = AXIS2_PLACEMENT_3D ( 'NONE', #142, #8, #172 ) ;
#125 =( NAMED_UNIT ( * ) SI_UNIT ( $, .STERADIAN. ) SOLID_ANGLE_UNIT ( ) );
#126 = DIRECTION ( 'NONE',  ( 0.0000000000000000000, 0.0000000000000000000, 1.000000000000000000 ) ) ;
#127 = DIRECTION ( 'NONE',  ( -1.000000000000000000, -0.0000000000000000000, -0.0000000000000000000 ) ) ;
#128 = DIRECTION ( 'NONE',  ( 1.000000000000000000, 0.0000000000000000000, 0.0000000000000000000 ) ) ;
#129 = VECTOR ( 'NONE', #67, 1000.000000000000000 ) ;
#130 = DIRECTION ( 'NONE',  ( 0.0000000000000000000, 0.0000000000000000000, 1.000000000000000000 ) ) ;
#131 = CC_DESIGN_PERSON_AND_ORGANIZATION_ASSIGNMENT ( #38, #26, ( #119 ) ) ;
#132 = ORIENTED_EDGE ( 'NONE', *, *, #4, .F. ) ;
#133 = APPROVAL_DATE_TIME ( #24, #81 ) ;
#134 = CC_DESIGN_APPROVAL ( #174, ( #30 ) ) ;
#135 = FACE_OUTER_BOUND ( 'NONE', #3, .T. ) ;
#136 = LINE ( 'NONE', #138, #168 ) ;
#137 = CC_DESIGN_DATE_AND_TIME_ASSIGNMENT ( #13, #114, ( #119 ) ) ;
#138 = CARTESIAN_POINT ( 'NONE',  ( 3.000000000000000000, 0.0000000000000000000, 25.00000000000000000 ) ) ;
#139 = CYLINDRICAL_SURFACE ( 'NONE', #156, 25.00000000000000000 ) ;
#140 = CARTESIAN_POINT ( 'NONE',  ( 0.0000000000000000000, 0.0000000000000000000, 25.00000000000000000 ) ) ;
#141 = VERTEX_POINT ( 'NONE', #160 ) ;
#142 = CARTESIAN_POINT ( 'NONE',  ( 0.0000000000000000000, 0.0000000000000000000, 0.0000000000000000000 ) ) ;
#143 = LOCAL_TIME ( 8, 32, 41.00000000000000000, #9 ) ;
#144 = DIRECTION ( 'NONE',  ( 0.0000000000000000000, 0.0000000000000000000, -1.000000000000000000 ) ) ;
#145 = MECHANICAL_CONTEXT ( 'NONE', #82, 'mechanical' ) ;
#146 = AXIS2_PLACEMENT_3D ( 'NONE', #96, #18, #130 ) ;
#147 = APPROVAL_ROLE ( '' ) ;
#148 = PERSON_AND_ORGANIZATION_ROLE ( 'creator' ) ;
#149 = DATE_AND_TIME ( #104, #75 ) ;
#150 = UNCERTAINTY_MEASURE_WITH_UNIT (LENGTH_MEASURE( 1.000000000000000100E-005 ), #169, 'distance_accuracy_value', 'NONE');
#151 = CC_DESIGN_PERSON_AND_ORGANIZATION_ASSIGNMENT ( #116, #113, ( #39 ) ) ;
#152 = EDGE_CURVE ( 'NONE', #171, #161, #1, .T. ) ;
#153 = DATE_AND_TIME ( #78, #143 ) ;
#154 = DATE_AND_TIME ( #11, #5 ) ;
#155 = EDGE_LOOP ( 'NONE', ( #123, #53 ) ) ;
#156 = AXIS2_PLACEMENT_3D ( 'NONE', #31, #127, #85 ) ;
#157 = ADVANCED_FACE ( 'NONE', ( #135 ), #139, .T. ) ;
#158 = DIRECTION ( 'NONE',  ( 1.000000000000000000, 0.0000000000000000000, 0.0000000000000000000 ) ) ;
#159 = DIRECTION ( 'NONE',  ( 1.000000000000000000, 0.0000000000000000000, 0.0000000000000000000 ) ) ;
#160 = CARTESIAN_POINT ( 'NONE',  ( 0.0000000000000000000, 3.061616997868383000E-015, -25.00000000000000000 ) ) ;
#161 = VERTEX_POINT ( 'NONE', #87 ) ;
#162 = DIRECTION ( 'NONE',  ( 1.000000000000000000, 0.0000000000000000000, 0.0000000000000000000 ) ) ;
#163 = PRODUCT_DEFINITION_SHAPE ( 'NONE', 'NONE',  #30 ) ;
#164 = CC_DESIGN_PERSON_AND_ORGANIZATION_ASSIGNMENT ( #66, #148, ( #30 ) ) ;
#165 = EDGE_LOOP ( 'NONE', ( #35, #117, #65, #62 ) ) ;
#166 =( GEOMETRIC_REPRESENTATION_CONTEXT ( 3 ) GLOBAL_UNCERTAINTY_ASSIGNED_CONTEXT ( ( #150 ) ) GLOBAL_UNIT_ASSIGNED_CONTEXT ( ( #169, #98, #125 ) ) REPRESENTATION_CONTEXT ( 'NONE', 'WORKASPACE' ) );
#167 = CYLINDRICAL_SURFACE ( 'NONE', #146, 25.00000000000000000 ) ;
#168 = VECTOR ( 'NONE', #7, 1000.000000000000000 ) ;
#169 =( LENGTH_UNIT ( ) NAMED_UNIT ( * ) SI_UNIT ( .MILLI., .METRE. ) );
#170 = CARTESIAN_POINT ( 'NONE',  ( 3.000000000000000000, 3.061616997868383000E-015, -25.00000000000000000 ) ) ;
#171 = VERTEX_POINT ( 'NONE', #97 ) ;
#172 = DIRECTION ( 'NONE',  ( 0.0000000000000000000, 0.0000000000000000000, -1.000000000000000000 ) ) ;
#173 = APPROVAL_ROLE ( '' ) ;
#174 = APPROVAL ( #59, 'UNSPECIFIED' ) ;
#175 = PERSON_AND_ORGANIZATION_ROLE ( 'design_owner' ) ;
ENDSEC;
END-ISO-10303-21;
