ISO-10303-21;
HEADER;
FILE_DESCRIPTION (( 'STEP AP203' ),
    '1' );
FILE_NAME ('TTN023911-E0W.STEP',
    '2014-04-22T14:51:15',
    ( 'admin' ),
    ( '' ),
    'SwSTEP 2.0',
    'SolidWorks 2012',
    '' );
FILE_SCHEMA (( 'CONFIG_CONTROL_DESIGN' ));
ENDSEC;

DATA;
#1 = FACE_OUTER_BOUND ( 'NONE', #86, .T. ) ;
#2 = LENGTH_MEASURE_WITH_UNIT ( LENGTH_MEASURE( 0.02539999999999999900 ), #124 );
#3 = CONICAL_SURFACE ( 'NONE', #33, 0.2421259842519684900, 0.7853981633974482800 ) ;
#4 = PRODUCT_DEFINITION_SHAPE ( 'NONE', 'NONE',  #44 ) ;
#5 = DESIGN_CONTEXT ( 'detailed design', #135, 'design' ) ;
#6 = EDGE_CURVE ( 'NONE', #277, #191, #257, .T. ) ;
#7 = EDGE_CURVE ( 'NONE', #280, #279, #283, .T. ) ;
#8 = EDGE_CURVE ( 'NONE', #280, #278, #290, .T. ) ;
#9 = EDGE_CURVE ( 'NONE', #281, #282, #289, .T. ) ;
#10 = EDGE_CURVE ( 'NONE', #279, #278, #286, .T. ) ;
#11 = EDGE_CURVE ( 'NONE', #189, #277, #285, .T. ) ;
#12 = EDGE_CURVE ( 'NONE', #191, #182, #79, .T. ) ;
#13 = EDGE_CURVE ( 'NONE', #189, #182, #77, .T. ) ;
#14 = EDGE_CURVE ( 'NONE', #281, #182, #70, .T. ) ;
#15 = EDGE_CURVE ( 'NONE', #277, #189, #78, .T. ) ;
#16 = EDGE_CURVE ( 'NONE', #279, #277, #75, .T. ) ;
#17 = EDGE_CURVE ( 'NONE', #278, #279, #71, .T. ) ;
#18 = EDGE_CURVE ( 'NONE', #282, #281, #253, .T. ) ;
#19 = EDGE_CURVE ( 'NONE', #278, #189, #251, .T. ) ;
#20 = EDGE_CURVE ( 'NONE', #182, #191, #252, .T. ) ;
#21 = EDGE_CURVE ( 'NONE', #282, #191, #300, .T. ) ;
#22 = AXIS2_PLACEMENT_3D ( 'NONE', #237, #238, #242 ) ;
#23 = AXIS2_PLACEMENT_3D ( 'NONE', #235, #245, #234 ) ;
#24 = AXIS2_PLACEMENT_3D ( 'NONE', #244, #233, #246 ) ;
#25 = AXIS2_PLACEMENT_3D ( 'NONE', #241, #240, #203 ) ;
#26 = AXIS2_PLACEMENT_3D ( 'NONE', #152, #295, #296 ) ;
#27 = AXIS2_PLACEMENT_3D ( 'NONE', #151, #297, #85 ) ;
#28 = AXIS2_PLACEMENT_3D ( 'NONE', #209, #210, #211 ) ;
#29 = AXIS2_PLACEMENT_3D ( 'NONE', #214, #215, #216 ) ;
#30 = AXIS2_PLACEMENT_3D ( 'NONE', #218, #219, #220 ) ;
#31 = AXIS2_PLACEMENT_3D ( 'NONE', #224, #225, #226 ) ;
#32 = AXIS2_PLACEMENT_3D ( 'NONE', #229, #223, #232 ) ;
#33 = AXIS2_PLACEMENT_3D ( 'NONE', #231, #230, #95 ) ;
#34 = AXIS2_PLACEMENT_3D ( 'NONE', #227, #228, #222 ) ;
#35 = AXIS2_PLACEMENT_3D ( 'NONE', #98, #96, #99 ) ;
#36 = AXIS2_PLACEMENT_3D ( 'NONE', #102, #100, #97 ) ;
#37 = AXIS2_PLACEMENT_3D ( 'NONE', #105, #103, #101 ) ;
#38 = AXIS2_PLACEMENT_3D ( 'NONE', #109, #107, #112 ) ;
#39 = AXIS2_PLACEMENT_3D ( 'NONE', #108, #106, #104 ) ;
#40 =( GEOMETRIC_REPRESENTATION_CONTEXT ( 3 ) GLOBAL_UNCERTAINTY_ASSIGNED_CONTEXT ( ( #304 ) ) GLOBAL_UNIT_ASSIGNED_CONTEXT ( ( #125, #126, #127 ) ) REPRESENTATION_CONTEXT ( 'NONE', 'WORKASPACE' ) );
#41 = AXIS2_PLACEMENT_3D ( 'NONE', #110, #115, #116 ) ;
#42 = AXIS2_PLACEMENT_3D ( 'NONE', #130, #131, #132 ) ;
#43 = CC_DESIGN_PERSON_AND_ORGANIZATION_ASSIGNMENT ( #168, #134, ( #83 ) ) ;
#44 = PRODUCT_DEFINITION ( 'UNKNOWN', '', #49, #5 ) ;
#45 = APPROVAL ( #137, 'UNSPECIFIED' ) ;
#46 = CC_DESIGN_APPROVAL ( #45, ( #44 ) ) ;
#47 = CC_DESIGN_PERSON_AND_ORGANIZATION_ASSIGNMENT ( #250, #139, ( #44 ) ) ;
#48 = CC_DESIGN_DATE_AND_TIME_ASSIGNMENT ( #172, #140, ( #44 ) ) ;
#49 = PRODUCT_DEFINITION_FORMATION_WITH_SPECIFIED_SOURCE ( 'ANY', '', #83, .NOT_KNOWN. ) ;
#50 = APPROVAL ( #141, 'UNSPECIFIED' ) ;
#51 = CC_DESIGN_APPROVAL ( #50, ( #49 ) ) ;
#52 = CC_DESIGN_PERSON_AND_ORGANIZATION_ASSIGNMENT ( #263, #143, ( #49 ) ) ;
#53 = CC_DESIGN_PERSON_AND_ORGANIZATION_ASSIGNMENT ( #264, #144, ( #49 ) ) ;
#54 = SECURITY_CLASSIFICATION ( '', '', #145 ) ;
#55 = CC_DESIGN_PERSON_AND_ORGANIZATION_ASSIGNMENT ( #265, #146, ( #54 ) ) ;
#56 = CC_DESIGN_DATE_AND_TIME_ASSIGNMENT ( #269, #147, ( #54 ) ) ;
#57 = APPROVAL ( #148, 'UNSPECIFIED' ) ;
#58 = CC_DESIGN_APPROVAL ( #57, ( #54 ) ) ;
#59 = CC_DESIGN_SECURITY_CLASSIFICATION ( #54, ( #49 ) ) ;
#60 = PRODUCT_RELATED_PRODUCT_CATEGORY ( 'detail', '', ( #83 ) ) ;
#61 = CONICAL_SURFACE ( 'NONE', #35, 0.2499999999999995800, 0.7286873360257888300 ) ;
#62 = SPHERICAL_SURFACE ( 'NONE', #38, 2.208897637795283600 ) ;
#63 = FACE_OUTER_BOUND ( 'NONE', #87, .T. ) ;
#64 = FACE_OUTER_BOUND ( 'NONE', #184, .T. ) ;
#65 = COORDINATED_UNIVERSAL_TIME_OFFSET ( 5, 0, .BEHIND. ) ;
#66 = APPROVAL_PERSON_ORGANIZATION ( #169, #45, #138 ) ;
#67 = CONICAL_SURFACE ( 'NONE', #37, 0.2421259842519684900, 0.7853981633974482800 ) ;
#68 = ORGANIZATION ( 'UNSPECIFIED', 'UNSPECIFIED', '' ) ;
#69 = SHAPE_DEFINITION_REPRESENTATION ( #4, #303 ) ;
#70 = LINE ( 'NONE', #239, #76 ) ;
#71 = CIRCLE ( 'NONE', #29, 0.2421905559562283500 ) ;
#72 = VECTOR ( 'NONE', #206, 39.37007874015748100 ) ;
#73 = VECTOR ( 'NONE', #205, 39.37007874015748100 ) ;
#74 = APPROVAL_PERSON_ORGANIZATION ( #166, #50, #142 ) ;
#75 = LINE ( 'NONE', #208, #73 ) ;
#76 = VECTOR ( 'NONE', #207, 39.37007874015748900 ) ;
#77 = LINE ( 'NONE', #204, #72 ) ;
#78 = CIRCLE ( 'NONE', #28, 0.2499999999999995800 ) ;
#79 = CIRCLE ( 'NONE', #27, 0.2499999999999995800 ) ;
#80 = COORDINATED_UNIVERSAL_TIME_OFFSET ( 5, 0, .BEHIND. ) ;
#81 = LOCAL_TIME ( 10, 51, 15.00000000000000000, #65 ) ;
#82 = CALENDAR_DATE ( 2014, 22, 4 ) ;
#83 = PRODUCT ( 'TTN023911-E0W', 'TTN023911-E0W', '', ( #133 ) ) ;
#84 = PERSON ( 'UNSPECIFIED', 'UNSPECIFIED', 'UNSPECIFIED', ('UNSPECIFIED'), ('UNSPECIFIED'), ('UNSPECIFIED') ) ;
#85 = DIRECTION ( 'NONE',  ( 0.0000000000000000000, 1.000000000000000000, 3.073328992872301300E-016 ) ) ;
#86 = EDGE_LOOP ( 'NONE', ( #94, #174, #180, #176 ) ) ;
#87 = EDGE_LOOP ( 'NONE', ( #258, #179, #90, #181 ) ) ;
#88 = EDGE_LOOP ( 'NONE', ( #196, #177, #178, #199 ) ) ;
#89 = EDGE_LOOP ( 'NONE', ( #198, #194, #193 ) ) ;
#90 = ORIENTED_EDGE ( 'NONE', *, *, #6, .T. ) ;
#91 = EDGE_LOOP ( 'NONE', ( #163, #165, #164, #190 ) ) ;
#92 = EDGE_LOOP ( 'NONE', ( #192, #201, #200, #175 ) ) ;
#93 = EDGE_LOOP ( 'NONE', ( #195, #262 ) ) ;
#94 = ORIENTED_EDGE ( 'NONE', *, *, #21, .F. ) ;
#95 = DIRECTION ( 'NONE',  ( 0.0000000000000000000, -1.000000000000000000, -3.173274651177086800E-016 ) ) ;
#96 = DIRECTION ( 'NONE',  ( -0.0000000000000000000, 3.061515884555845500E-016, -1.000000000000000000 ) ) ;
#97 = DIRECTION ( 'NONE',  ( 0.0000000000000000000, 1.000000000000000000, 3.073328992872301300E-016 ) ) ;
#98 = CARTESIAN_POINT ( 'NONE',  ( 0.0000000000000000000, -3.850997577241823400E-018, 0.02438975168505796600 ) ) ;
#99 = DIRECTION ( 'NONE',  ( 0.0000000000000000000, 1.000000000000000000, 3.073328992872301300E-016 ) ) ;
#100 = DIRECTION ( 'NONE',  ( -0.0000000000000000000, 3.061515884555845500E-016, -1.000000000000000000 ) ) ;
#101 = DIRECTION ( 'NONE',  ( 0.0000000000000000000, -1.000000000000000000, -3.173274651177086800E-016 ) ) ;
#102 = CARTESIAN_POINT ( 'NONE',  ( 0.0000000000000000000, -3.850997577241823400E-018, 0.02438975168505796600 ) ) ;
#103 = DIRECTION ( 'NONE',  ( 0.0000000000000000000, -3.061515884555943600E-016, 1.000000000000000000 ) ) ;
#104 = DIRECTION ( 'NONE',  ( 0.0000000000000000000, 1.000000000000000000, 3.073328992872301300E-016 ) ) ;
#105 = CARTESIAN_POINT ( 'NONE',  ( 0.0000000000000000000, 1.783875397300314200E-017, -0.04645669291338585400 ) ) ;
#106 = DIRECTION ( 'NONE',  ( -0.0000000000000000000, 3.061515884555942700E-016, -1.000000000000000000 ) ) ;
#107 = DIRECTION ( 'NONE',  ( 1.000000000000000000, 0.0000000000000000000, -0.0000000000000000000 ) ) ;
#108 = CARTESIAN_POINT ( 'NONE',  ( 0.0000000000000000000, 1.783875397300312900E-017, -0.04645669291338581900 ) ) ;
#109 = CARTESIAN_POINT ( 'NONE',  ( 0.0000000000000000000, 2.598961815320840800E-016, -2.162440944881891100 ) ) ;
#110 = CARTESIAN_POINT ( 'NONE',  ( 0.0000000000000000000, 1.783875397300314200E-017, -0.04645669291338585400 ) ) ;
#111 = PLANE ( 'NONE',  #41 ) ;
#112 = DIRECTION ( 'NONE',  ( 0.0000000000000000000, 1.000000000000000000, 2.473494422666810400E-016 ) ) ;
#113 = CARTESIAN_POINT ( 'NONE',  ( 0.0000000000000000000, 0.2499999999999995800, -0.03858267716535467000 ) ) ;
#114 = CARTESIAN_POINT ( 'NONE',  ( 3.061616997868378100E-017, -0.2499999999999995800, -0.03858267716535482300 ) ) ;
#115 = DIRECTION ( 'NONE',  ( -0.0000000000000000000, 3.061515884555942700E-016, -1.000000000000000000 ) ) ;
#116 = DIRECTION ( 'NONE',  ( 0.0000000000000000000, 1.000000000000000000, 3.061515884555942700E-016 ) ) ;
#117 = CARTESIAN_POINT ( 'NONE',  ( 3.061616997868378100E-017, -0.2499999999999995800, 0.02438975168505788700 ) ) ;
#118 = CARTESIAN_POINT ( 'NONE',  ( 2.965978891355107900E-017, -0.2421905559562269900, 0.03313927657739270500 ) ) ;
#119 = CARTESIAN_POINT ( 'NONE',  ( 0.0000000000000000000, -2.811053679262446100E-016, 0.04645669291339240400 ) ) ;
#120 = CARTESIAN_POINT ( 'NONE',  ( 0.0000000000000000000, 0.2499999999999995800, 0.02438975168505804300 ) ) ;
#121 = CARTESIAN_POINT ( 'NONE',  ( 3.013402556957067500E-017, 0.2421259842519685200, -0.04645669291338577800 ) ) ;
#122 = CARTESIAN_POINT ( 'NONE',  ( 0.0000000000000000000, 0.2421905559562261600, 0.03313927657739277500 ) ) ;
#123 = CARTESIAN_POINT ( 'NONE',  ( 0.0000000000000000000, -0.2421259842519684300, -0.04645669291338593000 ) ) ;
#124 =( LENGTH_UNIT ( ) NAMED_UNIT ( * ) SI_UNIT ( $, .METRE. ) );
#125 =( CONVERSION_BASED_UNIT ( 'INCH', #2 ) LENGTH_UNIT ( ) NAMED_UNIT ( #162 ) );
#126 =( NAMED_UNIT ( * ) PLANE_ANGLE_UNIT ( ) SI_UNIT ( $, .RADIAN. ) );
#127 =( NAMED_UNIT ( * ) SI_UNIT ( $, .STERADIAN. ) SOLID_ANGLE_UNIT ( ) );
#128 = APPLICATION_PROTOCOL_DEFINITION ( 'international standard', 'config_control_design', 1994, #129 ) ;
#129 = APPLICATION_CONTEXT ( 'configuration controlled 3d designs of mechanical parts and assemblies' ) ;
#130 = CARTESIAN_POINT ( 'NONE',  ( 0.0000000000000000000, 0.0000000000000000000, 0.0000000000000000000 ) ) ;
#131 = DIRECTION ( 'NONE',  ( 0.0000000000000000000, 0.0000000000000000000, 1.000000000000000000 ) ) ;
#132 = DIRECTION ( 'NONE',  ( 1.000000000000000000, 0.0000000000000000000, 0.0000000000000000000 ) ) ;
#133 = MECHANICAL_CONTEXT ( 'NONE', #129, 'mechanical' ) ;
#134 = PERSON_AND_ORGANIZATION_ROLE ( 'design_owner' ) ;
#135 = APPLICATION_CONTEXT ( 'configuration controlled 3d designs of mechanical parts and assemblies' ) ;
#136 = APPLICATION_PROTOCOL_DEFINITION ( 'international standard', 'config_control_design', 1994, #135 ) ;
#137 = APPROVAL_STATUS ( 'not_yet_approved' ) ;
#138 = APPROVAL_ROLE ( '' ) ;
#139 = PERSON_AND_ORGANIZATION_ROLE ( 'creator' ) ;
#140 = DATE_TIME_ROLE ( 'creation_date' ) ;
#141 = APPROVAL_STATUS ( 'not_yet_approved' ) ;
#142 = APPROVAL_ROLE ( '' ) ;
#143 = PERSON_AND_ORGANIZATION_ROLE ( 'creator' ) ;
#144 = PERSON_AND_ORGANIZATION_ROLE ( 'design_supplier' ) ;
#145 = SECURITY_CLASSIFICATION_LEVEL ( 'unclassified' ) ;
#146 = PERSON_AND_ORGANIZATION_ROLE ( 'classification_officer' ) ;
#147 = DATE_TIME_ROLE ( 'classification_date' ) ;
#148 = APPROVAL_STATUS ( 'not_yet_approved' ) ;
#149 = APPROVAL_ROLE ( '' ) ;
#150 = LOCAL_TIME ( 10, 51, 15.00000000000000000, #80 ) ;
#151 = CARTESIAN_POINT ( 'NONE',  ( 0.0000000000000000000, 1.542811154421905400E-017, -0.03858267716535474700 ) ) ;
#152 = CARTESIAN_POINT ( 'NONE',  ( 0.0000000000000000000, -3.850997577241690900E-018, 0.02438975168505796600 ) ) ;
#153 = ADVANCED_FACE ( 'NONE', ( #299 ), #292, .T. ) ;
#154 = ADVANCED_FACE ( 'NONE', ( #291 ), #294, .T. ) ;
#155 = ADVANCED_FACE ( 'NONE', ( #247 ), #3, .T. ) ;
#156 = ADVANCED_FACE ( 'NONE', ( #249 ), #61, .T. ) ;
#157 = ADVANCED_FACE ( 'NONE', ( #301 ), #171, .T. ) ;
#158 = ADVANCED_FACE ( 'NONE', ( #1 ), #67, .T. ) ;
#159 = ADVANCED_FACE ( 'NONE', ( #63 ), #170, .T. ) ;
#160 = ADVANCED_FACE ( 'NONE', ( #64 ), #62, .T. ) ;
#161 = ADVANCED_FACE ( 'NONE', ( #167 ), #111, .T. ) ;
#162 = DIMENSIONAL_EXPONENTS ( 1.000000000000000000, 0.0000000000000000000, 0.0000000000000000000, 0.0000000000000000000, 0.0000000000000000000, 0.0000000000000000000, 0.0000000000000000000 ) ;
#163 = ORIENTED_EDGE ( 'NONE', *, *, #19, .F. ) ;
#164 = ORIENTED_EDGE ( 'NONE', *, *, #16, .T. ) ;
#165 = ORIENTED_EDGE ( 'NONE', *, *, #10, .F. ) ;
#166 = PERSON_AND_ORGANIZATION ( #84, #68 ) ;
#167 = FACE_OUTER_BOUND ( 'NONE', #93, .T. ) ;
#168 = PERSON_AND_ORGANIZATION ( #84, #68 ) ;
#169 = PERSON_AND_ORGANIZATION ( #84, #68 ) ;
#170 = CYLINDRICAL_SURFACE ( 'NONE', #39, 0.2499999999999995800 ) ;
#171 = CONICAL_SURFACE ( 'NONE', #36, 0.2499999999999995800, 0.7286873360257888300 ) ;
#172 = DATE_AND_TIME ( #255, #256 ) ;
#173 = DATE_AND_TIME ( #293, #150 ) ;
#174 = ORIENTED_EDGE ( 'NONE', *, *, #9, .F. ) ;
#175 = ORIENTED_EDGE ( 'NONE', *, *, #14, .F. ) ;
#176 = ORIENTED_EDGE ( 'NONE', *, *, #12, .F. ) ;
#177 = ORIENTED_EDGE ( 'NONE', *, *, #13, .T. ) ;
#178 = ORIENTED_EDGE ( 'NONE', *, *, #20, .T. ) ;
#179 = ORIENTED_EDGE ( 'NONE', *, *, #11, .T. ) ;
#180 = ORIENTED_EDGE ( 'NONE', *, *, #14, .T. ) ;
#181 = ORIENTED_EDGE ( 'NONE', *, *, #12, .T. ) ;
#182 = VERTEX_POINT ( 'NONE', #114 ) ;
#183 = ORIENTED_EDGE ( 'NONE', *, *, #15, .F. ) ;
#184 = EDGE_LOOP ( 'NONE', ( #261, #260, #259 ) ) ;
#185 = EDGE_LOOP ( 'NONE', ( #186, #187, #183, #197 ) ) ;
#186 = ORIENTED_EDGE ( 'NONE', *, *, #17, .F. ) ;
#187 = ORIENTED_EDGE ( 'NONE', *, *, #19, .T. ) ;
#188 = CLOSED_SHELL ( 'NONE', ( #156, #155, #153, #154, #161, #160, #159, #158, #157 ) ) ;
#189 = VERTEX_POINT ( 'NONE', #117 ) ;
#190 = ORIENTED_EDGE ( 'NONE', *, *, #11, .F. ) ;
#191 = VERTEX_POINT ( 'NONE', #113 ) ;
#192 = ORIENTED_EDGE ( 'NONE', *, *, #18, .F. ) ;
#193 = ORIENTED_EDGE ( 'NONE', *, *, #17, .T. ) ;
#194 = ORIENTED_EDGE ( 'NONE', *, *, #8, .T. ) ;
#195 = ORIENTED_EDGE ( 'NONE', *, *, #9, .T. ) ;
#196 = ORIENTED_EDGE ( 'NONE', *, *, #15, .T. ) ;
#197 = ORIENTED_EDGE ( 'NONE', *, *, #16, .F. ) ;
#198 = ORIENTED_EDGE ( 'NONE', *, *, #7, .F. ) ;
#199 = ORIENTED_EDGE ( 'NONE', *, *, #6, .F. ) ;
#200 = ORIENTED_EDGE ( 'NONE', *, *, #20, .F. ) ;
#201 = ORIENTED_EDGE ( 'NONE', *, *, #21, .T. ) ;
#202 = APPROVAL_DATE_TIME ( #173, #50 ) ;
#203 = DIRECTION ( 'NONE',  ( 0.0000000000000000000, 1.000000000000000000, 2.996182573891187400E-016 ) ) ;
#204 = CARTESIAN_POINT ( 'NONE',  ( 3.061616997868378100E-017, -0.2499999999999995600, -0.04645669291338589600 ) ) ;
#205 = DIRECTION ( 'NONE',  ( 0.0000000000000000000, 0.6658908971551258400, -0.7460491358388813300 ) ) ;
#206 = DIRECTION ( 'NONE',  ( -0.0000000000000000000, 3.061515884555942700E-016, -1.000000000000000000 ) ) ;
#207 = DIRECTION ( 'NONE',  ( 0.0000000000000000000, -0.7071067811865476800, 0.7071067811865472400 ) ) ;
#208 = CARTESIAN_POINT ( 'NONE',  ( 0.0000000000000000000, 0.2499999999999995800, 0.02438975168505804300 ) ) ;
#209 = CARTESIAN_POINT ( 'NONE',  ( 0.0000000000000000000, -3.850997577241690900E-018, 0.02438975168505796600 ) ) ;
#210 = DIRECTION ( 'NONE',  ( -0.0000000000000000000, 3.061515884555845500E-016, -1.000000000000000000 ) ) ;
#211 = DIRECTION ( 'NONE',  ( 0.0000000000000000000, -1.000000000000000000, -3.073328992872301300E-016 ) ) ;
#212 = CARTESIAN_POINT ( 'NONE',  ( 3.061616997868378100E-017, -0.2499999999999995800, 0.02438975168505788700 ) ) ;
#213 = DIRECTION ( 'NONE',  ( 8.154811557823837900E-017, -0.6658908971551252800, -0.7460491358388816600 ) ) ;
#214 = CARTESIAN_POINT ( 'NONE',  ( 0.0000000000000000000, -4.122841908493398100E-016, 0.03313927657739287900 ) ) ;
#215 = DIRECTION ( 'NONE',  ( 0.0000000000000000000, -3.061515884555845500E-016, 1.000000000000000000 ) ) ;
#216 = DIRECTION ( 'NONE',  ( 0.0000000000000000000, 1.000000000000000000, 2.996182573891187400E-016 ) ) ;
#217 = DIRECTION ( 'NONE',  ( 8.659560562354932900E-017, 0.7071067811865472400, 0.7071067811865476800 ) ) ;
#218 = CARTESIAN_POINT ( 'NONE',  ( 0.0000000000000000000, 1.783875397300313900E-017, -0.04645669291338585400 ) ) ;
#219 = DIRECTION ( 'NONE',  ( -0.0000000000000000000, 3.061515884555942700E-016, -1.000000000000000000 ) ) ;
#220 = DIRECTION ( 'NONE',  ( 0.0000000000000000000, 1.000000000000000000, 3.173274651177086800E-016 ) ) ;
#221 = CARTESIAN_POINT ( 'NONE',  ( 2.965188116045756200E-017, 0.2421259842519685200, -0.04645669291338577800 ) ) ;
#222 = DIRECTION ( 'NONE',  ( 0.0000000000000000000, 1.000000000000000000, 3.073328992872301300E-016 ) ) ;
#223 = DIRECTION ( 'NONE',  ( 1.000000000000000000, 0.0000000000000000000, -0.0000000000000000000 ) ) ;
#224 = CARTESIAN_POINT ( 'NONE',  ( 0.0000000000000000000, 1.542811154421905400E-017, -0.03858267716535474700 ) ) ;
#225 = DIRECTION ( 'NONE',  ( 0.0000000000000000000, -3.061515884555943600E-016, 1.000000000000000000 ) ) ;
#226 = DIRECTION ( 'NONE',  ( 0.0000000000000000000, 1.000000000000000000, 3.073328992872301300E-016 ) ) ;
#227 = CARTESIAN_POINT ( 'NONE',  ( 0.0000000000000000000, 1.783875397300312900E-017, -0.04645669291338581900 ) ) ;
#228 = DIRECTION ( 'NONE',  ( -0.0000000000000000000, 3.061515884555942700E-016, -1.000000000000000000 ) ) ;
#229 = CARTESIAN_POINT ( 'NONE',  ( 0.0000000000000000000, 2.598961815320840800E-016, -2.162440944881891100 ) ) ;
#230 = DIRECTION ( 'NONE',  ( 0.0000000000000000000, -3.061515884555943600E-016, 1.000000000000000000 ) ) ;
#231 = CARTESIAN_POINT ( 'NONE',  ( 0.0000000000000000000, 1.783875397300314200E-017, -0.04645669291338585400 ) ) ;
#232 = DIRECTION ( 'NONE',  ( 0.0000000000000000000, 1.000000000000000000, 2.473494422666810400E-016 ) ) ;
#233 = DIRECTION ( 'NONE',  ( -0.0000000000000000000, 3.061515884555942700E-016, -1.000000000000000000 ) ) ;
#234 = DIRECTION ( 'NONE',  ( -1.224646799147353200E-016, 1.000000000000000000, 0.0000000000000000000 ) ) ;
#235 = CARTESIAN_POINT ( 'NONE',  ( 0.0000000000000000000, 2.598961815320840800E-016, -2.162440944881891100 ) ) ;
#236 = DIRECTION ( 'NONE',  ( -0.0000000000000000000, 3.061515884555942700E-016, -1.000000000000000000 ) ) ;
#237 = CARTESIAN_POINT ( 'NONE',  ( 0.0000000000000000000, 2.598961815320840800E-016, -2.162440944881891100 ) ) ;
#238 = DIRECTION ( 'NONE',  ( -1.000000000000000000, 0.0000000000000000000, 0.0000000000000000000 ) ) ;
#239 = CARTESIAN_POINT ( 'NONE',  ( 0.0000000000000000000, -0.2421259842519684300, -0.04645669291338593000 ) ) ;
#240 = DIRECTION ( 'NONE',  ( 0.0000000000000000000, -3.061515884555845500E-016, 1.000000000000000000 ) ) ;
#241 = CARTESIAN_POINT ( 'NONE',  ( 0.0000000000000000000, -4.122841908493398100E-016, 0.03313927657739287900 ) ) ;
#242 = DIRECTION ( 'NONE',  ( 0.0000000000000000000, 0.0000000000000000000, 1.000000000000000000 ) ) ;
#243 = CARTESIAN_POINT ( 'NONE',  ( 0.0000000000000000000, 0.2499999999999996100, -0.04645669291338574300 ) ) ;
#244 = CARTESIAN_POINT ( 'NONE',  ( 0.0000000000000000000, 1.783875397300313900E-017, -0.04645669291338585400 ) ) ;
#245 = DIRECTION ( 'NONE',  ( 1.000000000000000000, 1.224646799147353200E-016, 3.749275628560213100E-032 ) ) ;
#246 = DIRECTION ( 'NONE',  ( 0.0000000000000000000, 1.000000000000000000, 3.173274651177086800E-016 ) ) ;
#247 = FACE_OUTER_BOUND ( 'NONE', #92, .T. ) ;
#248 = COORDINATED_UNIVERSAL_TIME_OFFSET ( 5, 0, .BEHIND. ) ;
#249 = FACE_OUTER_BOUND ( 'NONE', #185, .T. ) ;
#250 = PERSON_AND_ORGANIZATION ( #84, #68 ) ;
#251 = LINE ( 'NONE', #212, #254 ) ;
#252 = CIRCLE ( 'NONE', #31, 0.2499999999999995800 ) ;
#253 = CIRCLE ( 'NONE', #30, 0.2421259842519684900 ) ;
#254 = VECTOR ( 'NONE', #213, 39.37007874015748900 ) ;
#255 = CALENDAR_DATE ( 2014, 22, 4 ) ;
#256 = LOCAL_TIME ( 10, 51, 15.00000000000000000, #248 ) ;
#257 = LINE ( 'NONE', #243, #287 ) ;
#258 = ORIENTED_EDGE ( 'NONE', *, *, #13, .F. ) ;
#259 = ORIENTED_EDGE ( 'NONE', *, *, #10, .T. ) ;
#260 = ORIENTED_EDGE ( 'NONE', *, *, #7, .T. ) ;
#261 = ORIENTED_EDGE ( 'NONE', *, *, #8, .F. ) ;
#262 = ORIENTED_EDGE ( 'NONE', *, *, #18, .T. ) ;
#263 = PERSON_AND_ORGANIZATION ( #84, #68 ) ;
#264 = PERSON_AND_ORGANIZATION ( #84, #68 ) ;
#265 = PERSON_AND_ORGANIZATION ( #84, #68 ) ;
#266 = COORDINATED_UNIVERSAL_TIME_OFFSET ( 5, 0, .BEHIND. ) ;
#267 = LOCAL_TIME ( 10, 51, 15.00000000000000000, #266 ) ;
#268 = CALENDAR_DATE ( 2014, 22, 4 ) ;
#269 = DATE_AND_TIME ( #268, #267 ) ;
#270 = PERSON_AND_ORGANIZATION ( #84, #68 ) ;
#271 = APPROVAL_PERSON_ORGANIZATION ( #270, #57, #149 ) ;
#272 = COORDINATED_UNIVERSAL_TIME_OFFSET ( 5, 0, .BEHIND. ) ;
#273 = LOCAL_TIME ( 10, 51, 15.00000000000000000, #272 ) ;
#274 = CALENDAR_DATE ( 2014, 22, 4 ) ;
#275 = DATE_AND_TIME ( #274, #273 ) ;
#276 = APPROVAL_DATE_TIME ( #275, #57 ) ;
#277 = VERTEX_POINT ( 'NONE', #120 ) ;
#278 = VERTEX_POINT ( 'NONE', #118 ) ;
#279 = VERTEX_POINT ( 'NONE', #122 ) ;
#280 = VERTEX_POINT ( 'NONE', #119 ) ;
#281 = VERTEX_POINT ( 'NONE', #123 ) ;
#282 = VERTEX_POINT ( 'NONE', #121 ) ;
#283 = CIRCLE ( 'NONE', #22, 2.208897637795283600 ) ;
#284 = DATE_AND_TIME ( #82, #81 ) ;
#285 = CIRCLE ( 'NONE', #26, 0.2499999999999995800 ) ;
#286 = CIRCLE ( 'NONE', #25, 0.2421905559562283500 ) ;
#287 = VECTOR ( 'NONE', #236, 39.37007874015748100 ) ;
#288 = APPROVAL_DATE_TIME ( #284, #45 ) ;
#289 = CIRCLE ( 'NONE', #24, 0.2421259842519684900 ) ;
#290 = CIRCLE ( 'NONE', #23, 2.208897637795283600 ) ;
#291 = FACE_OUTER_BOUND ( 'NONE', #89, .T. ) ;
#292 = CYLINDRICAL_SURFACE ( 'NONE', #34, 0.2499999999999995800 ) ;
#293 = CALENDAR_DATE ( 2014, 22, 4 ) ;
#294 = SPHERICAL_SURFACE ( 'NONE', #32, 2.208897637795283600 ) ;
#295 = DIRECTION ( 'NONE',  ( -0.0000000000000000000, 3.061515884555845500E-016, -1.000000000000000000 ) ) ;
#296 = DIRECTION ( 'NONE',  ( 0.0000000000000000000, -1.000000000000000000, -3.073328992872301300E-016 ) ) ;
#297 = DIRECTION ( 'NONE',  ( 0.0000000000000000000, -3.061515884555943600E-016, 1.000000000000000000 ) ) ;
#298 = VECTOR ( 'NONE', #217, 39.37007874015748900 ) ;
#299 = FACE_OUTER_BOUND ( 'NONE', #88, .T. ) ;
#300 = LINE ( 'NONE', #221, #298 ) ;
#301 = FACE_OUTER_BOUND ( 'NONE', #91, .T. ) ;
#302 = MANIFOLD_SOLID_BREP ( 'TTN023923-1-solid1', #188 ) ;
#303 = ADVANCED_BREP_SHAPE_REPRESENTATION ( 'TTN023911-E0W', ( #302, #42 ), #40 ) ;
#304 = UNCERTAINTY_MEASURE_WITH_UNIT (LENGTH_MEASURE( 1.000000000000000100E-005 ), #125, 'distance_accuracy_value', 'NONE');
ENDSEC;
END-ISO-10303-21;
