ISO-10303-21;
HEADER;
FILE_DESCRIPTION (( 'STEP AP203' ),
    '1' );
FILE_NAME ('Web Model 45854_48402.step',
    '2017-03-01T18:33:00',
    ( '' ),
    ( '' ),
    'SwSTEP 2.0',
    'SolidWorks 2016',
    '' );
FILE_SCHEMA (( 'CONFIG_CONTROL_DESIGN' ));
ENDSEC;

DATA;
#1 = APPROVAL_STATUS ( 'not_yet_approved' ) ;
#2 = ADVANCED_BREP_SHAPE_REPRESENTATION ( 'Web Model 45854_48402', ( #120, #203 ), #19 ) ;
#3 = DIRECTION ( 'NONE',  ( -0.0000000000000000000, -0.0000000000000000000, -1.000000000000000000 ) ) ;
#4 = VERTEX_POINT ( 'NONE', #89 ) ;
#5 = PERSON_AND_ORGANIZATION_ROLE ( 'design_owner' ) ;
#6 = LINE ( 'NONE', #150, #76 ) ;
#7 = CC_DESIGN_PERSON_AND_ORGANIZATION_ASSIGNMENT ( #211, #5, ( #124 ) ) ;
#8 = ORIENTED_EDGE ( 'NONE', *, *, #110, .T. ) ;
#9 = AXIS2_PLACEMENT_3D ( 'NONE', #201, #158, #182 ) ;
#10 = CARTESIAN_POINT ( 'NONE',  ( 0.0000000000000000000, 0.0000000000000000000, 0.0000000000000000000 ) ) ;
#11 = ORIENTED_EDGE ( 'NONE', *, *, #137, .F. ) ;
#12 = LINE ( 'NONE', #43, #152 ) ;
#13 = EDGE_LOOP ( 'NONE', ( #187, #46, #165, #59 ) ) ;
#14 = CC_DESIGN_DATE_AND_TIME_ASSIGNMENT ( #161, #140, ( #143 ) ) ;
#15 = APPROVAL_DATE_TIME ( #230, #96 ) ;
#16 =( NAMED_UNIT ( * ) SI_UNIT ( $, .STERADIAN. ) SOLID_ANGLE_UNIT ( ) );
#17 = EDGE_LOOP ( 'NONE', ( #70, #144, #234, #222 ) ) ;
#18 = DIRECTION ( 'NONE',  ( 1.000000000000000000, 0.0000000000000000000, 0.0000000000000000000 ) ) ;
#19 =( GEOMETRIC_REPRESENTATION_CONTEXT ( 3 ) GLOBAL_UNCERTAINTY_ASSIGNED_CONTEXT ( ( #21 ) ) GLOBAL_UNIT_ASSIGNED_CONTEXT ( ( #228, #57, #16 ) ) REPRESENTATION_CONTEXT ( 'NONE', 'WORKASPACE' ) );
#20 = PLANE ( 'NONE',  #68 ) ;
#21 = UNCERTAINTY_MEASURE_WITH_UNIT (LENGTH_MEASURE( 1.000000000000000100E-005 ), #228, 'distance_accuracy_value', 'NONE');
#22 = ORIENTED_EDGE ( 'NONE', *, *, #42, .F. ) ;
#23 = VECTOR ( 'NONE', #184, 1000.000000000000000 ) ;
#24 = PRODUCT_DEFINITION_FORMATION_WITH_SPECIFIED_SOURCE ( 'ANY', '', #124, .NOT_KNOWN. ) ;
#25 = AXIS2_PLACEMENT_3D ( 'NONE', #48, #167, #62 ) ;
#26 = DIRECTION ( 'NONE',  ( -0.0000000000000000000, -0.0000000000000000000, -1.000000000000000000 ) ) ;
#27 = LINE ( 'NONE', #113, #168 ) ;
#28 = PERSON_AND_ORGANIZATION ( #156, #166 ) ;
#29 = PERSON_AND_ORGANIZATION ( #156, #166 ) ;
#30 = EDGE_LOOP ( 'NONE', ( #8, #224, #229, #176 ) ) ;
#31 = LOCAL_TIME ( 13, 33, 0.0000000000000000000, #103 ) ;
#32 = PERSON_AND_ORGANIZATION ( #156, #166 ) ;
#33 = APPROVAL_STATUS ( 'not_yet_approved' ) ;
#34 = DIRECTION ( 'NONE',  ( -1.000000000000000000, -0.0000000000000000000, -0.0000000000000000000 ) ) ;
#35 = DIRECTION ( 'NONE',  ( -0.0000000000000000000, -1.000000000000000000, -0.0000000000000000000 ) ) ;
#36 = ORIENTED_EDGE ( 'NONE', *, *, #134, .T. ) ;
#37 = VECTOR ( 'NONE', #170, 1000.000000000000000 ) ;
#38 = APPROVAL ( #33, 'UNSPECIFIED' ) ;
#39 = PLANE ( 'NONE',  #9 ) ;
#40 = ORIENTED_EDGE ( 'NONE', *, *, #237, .T. ) ;
#41 = VERTEX_POINT ( 'NONE', #207 ) ;
#42 = EDGE_CURVE ( 'NONE', #215, #41, #100, .T. ) ;
#43 = CARTESIAN_POINT ( 'NONE',  ( 50.00000000000000000, 0.0000000000000000000, 0.0000000000000000000 ) ) ;
#44 = CARTESIAN_POINT ( 'NONE',  ( 0.0000000000000000000, 50.00000000000000000, 0.0000000000000000000 ) ) ;
#45 = VECTOR ( 'NONE', #26, 1000.000000000000000 ) ;
#46 = ORIENTED_EDGE ( 'NONE', *, *, #223, .F. ) ;
#47 = APPLICATION_PROTOCOL_DEFINITION ( 'international standard', 'config_control_design', 1994, #147 ) ;
#48 = CARTESIAN_POINT ( 'NONE',  ( 50.00000000000000000, 0.0000000000000000000, 3.000000000000000000 ) ) ;
#49 = COORDINATED_UNIVERSAL_TIME_OFFSET ( 5, 0, .BEHIND. ) ;
#50 = CC_DESIGN_APPROVAL ( #236, ( #143 ) ) ;
#51 = EDGE_CURVE ( 'NONE', #132, #202, #138, .T. ) ;
#52 = LINE ( 'NONE', #204, #45 ) ;
#53 = APPROVAL_PERSON_ORGANIZATION ( #213, #96, #148 ) ;
#54 = AXIS2_PLACEMENT_3D ( 'NONE', #122, #218, #87 ) ;
#55 = CC_DESIGN_APPROVAL ( #96, ( #24 ) ) ;
#56 = CARTESIAN_POINT ( 'NONE',  ( 0.0000000000000000000, 50.00000000000000000, 0.0000000000000000000 ) ) ;
#57 =( NAMED_UNIT ( * ) PLANE_ANGLE_UNIT ( ) SI_UNIT ( $, .RADIAN. ) );
#58 = EDGE_CURVE ( 'NONE', #195, #132, #6, .T. ) ;
#59 = ORIENTED_EDGE ( 'NONE', *, *, #137, .T. ) ;
#60 = FACE_OUTER_BOUND ( 'NONE', #17, .T. ) ;
#61 = FACE_OUTER_BOUND ( 'NONE', #127, .T. ) ;
#62 = DIRECTION ( 'NONE',  ( 0.0000000000000000000, 0.0000000000000000000, 1.000000000000000000 ) ) ;
#63 = CARTESIAN_POINT ( 'NONE',  ( 0.0000000000000000000, 50.00000000000000000, 3.000000000000000000 ) ) ;
#64 = CALENDAR_DATE ( 2017, 1, 3 ) ;
#65 = ADVANCED_FACE ( 'NONE', ( #149 ), #231, .F. ) ;
#66 = CARTESIAN_POINT ( 'NONE',  ( 0.0000000000000000000, 0.0000000000000000000, 3.000000000000000000 ) ) ;
#67 = CC_DESIGN_APPROVAL ( #38, ( #81 ) ) ;
#68 = AXIS2_PLACEMENT_3D ( 'NONE', #72, #18, #108 ) ;
#69 = APPROVAL_STATUS ( 'not_yet_approved' ) ;
#70 = ORIENTED_EDGE ( 'NONE', *, *, #58, .T. ) ;
#71 = ORIENTED_EDGE ( 'NONE', *, *, #58, .F. ) ;
#72 = CARTESIAN_POINT ( 'NONE',  ( 0.0000000000000000000, 0.0000000000000000000, 3.000000000000000000 ) ) ;
#73 = CARTESIAN_POINT ( 'NONE',  ( 0.0000000000000000000, 50.00000000000000000, 3.000000000000000000 ) ) ;
#74 = ADVANCED_FACE ( 'NONE', ( #189 ), #114, .T. ) ;
#75 = VECTOR ( 'NONE', #159, 1000.000000000000000 ) ;
#76 = VECTOR ( 'NONE', #35, 1000.000000000000000 ) ;
#77 = DIRECTION ( 'NONE',  ( -1.000000000000000000, 0.0000000000000000000, -0.0000000000000000000 ) ) ;
#78 = LINE ( 'NONE', #225, #75 ) ;
#79 = APPROVAL_DATE_TIME ( #164, #236 ) ;
#80 = CARTESIAN_POINT ( 'NONE',  ( 50.00000000000000000, 0.0000000000000000000, 3.000000000000000000 ) ) ;
#81 = PRODUCT_DEFINITION ( 'UNKNOWN', '', #24, #205 ) ;
#82 = FACE_OUTER_BOUND ( 'NONE', #216, .T. ) ;
#83 = ADVANCED_FACE ( 'NONE', ( #82 ), #20, .F. ) ;
#84 = AXIS2_PLACEMENT_3D ( 'NONE', #169, #97, #77 ) ;
#85 = DIRECTION ( 'NONE',  ( 1.000000000000000000, 0.0000000000000000000, 0.0000000000000000000 ) ) ;
#86 = CC_DESIGN_PERSON_AND_ORGANIZATION_ASSIGNMENT ( #32, #220, ( #24 ) ) ;
#87 = DIRECTION ( 'NONE',  ( -1.000000000000000000, 0.0000000000000000000, -0.0000000000000000000 ) ) ;
#88 = ORIENTED_EDGE ( 'NONE', *, *, #51, .F. ) ;
#89 = CARTESIAN_POINT ( 'NONE',  ( 50.00000000000000000, 50.00000000000000000, 3.000000000000000000 ) ) ;
#90 = CARTESIAN_POINT ( 'NONE',  ( 0.0000000000000000000, 50.00000000000000000, 3.000000000000000000 ) ) ;
#91 = CARTESIAN_POINT ( 'NONE',  ( 0.0000000000000000000, 0.0000000000000000000, 0.0000000000000000000 ) ) ;
#92 = LINE ( 'NONE', #66, #193 ) ;
#93 = VECTOR ( 'NONE', #3, 1000.000000000000000 ) ;
#94 = DIRECTION ( 'NONE',  ( 0.0000000000000000000, 1.000000000000000000, 0.0000000000000000000 ) ) ;
#95 = EDGE_LOOP ( 'NONE', ( #217, #145, #136, #22 ) ) ;
#96 = APPROVAL ( #69, 'UNSPECIFIED' ) ;
#97 = DIRECTION ( 'NONE',  ( 0.0000000000000000000, 0.0000000000000000000, -1.000000000000000000 ) ) ;
#98 = FACE_OUTER_BOUND ( 'NONE', #13, .T. ) ;
#99 = CARTESIAN_POINT ( 'NONE',  ( 0.0000000000000000000, 0.0000000000000000000, 3.000000000000000000 ) ) ;
#100 = LINE ( 'NONE', #10, #23 ) ;
#101 = PERSON_AND_ORGANIZATION ( #156, #166 ) ;
#102 = VECTOR ( 'NONE', #135, 1000.000000000000000 ) ;
#103 = COORDINATED_UNIVERSAL_TIME_OFFSET ( 5, 0, .BEHIND. ) ;
#104 = ORIENTED_EDGE ( 'NONE', *, *, #42, .T. ) ;
#105 = ORIENTED_EDGE ( 'NONE', *, *, #199, .T. ) ;
#106 = PLANE ( 'NONE',  #84 ) ;
#107 = PERSON_AND_ORGANIZATION ( #156, #166 ) ;
#108 = DIRECTION ( 'NONE',  ( 0.0000000000000000000, 0.0000000000000000000, -1.000000000000000000 ) ) ;
#109 = LOCAL_TIME ( 13, 33, 0.0000000000000000000, #173 ) ;
#110 = EDGE_CURVE ( 'NONE', #209, #142, #219, .T. ) ;
#111 = APPROVAL_ROLE ( '' ) ;
#112 = CARTESIAN_POINT ( 'NONE',  ( 0.0000000000000000000, 0.0000000000000000000, 0.0000000000000000000 ) ) ;
#113 = CARTESIAN_POINT ( 'NONE',  ( 50.00000000000000000, 0.0000000000000000000, 3.000000000000000000 ) ) ;
#114 = PLANE ( 'NONE',  #54 ) ;
#115 = LINE ( 'NONE', #90, #93 ) ;
#116 = ORIENTED_EDGE ( 'NONE', *, *, #134, .F. ) ;
#117 = PERSON_AND_ORGANIZATION_ROLE ( 'classification_officer' ) ;
#118 = LINE ( 'NONE', #178, #37 ) ;
#119 = COORDINATED_UNIVERSAL_TIME_OFFSET ( 5, 0, .BEHIND. ) ;
#120 = MANIFOLD_SOLID_BREP ( 'Extrude1', #153 ) ;
#121 = LOCAL_TIME ( 13, 33, 0.0000000000000000000, #119 ) ;
#122 = CARTESIAN_POINT ( 'NONE',  ( 0.0000000000000000000, 50.00000000000000000, 0.0000000000000000000 ) ) ;
#123 = CALENDAR_DATE ( 2017, 1, 3 ) ;
#124 = PRODUCT ( 'Web Model 45854_48402', 'Web Model 45854_48402', '', ( #190 ) ) ;
#125 = CC_DESIGN_PERSON_AND_ORGANIZATION_ASSIGNMENT ( #107, #139, ( #81 ) ) ;
#126 = APPROVAL_ROLE ( '' ) ;
#127 = EDGE_LOOP ( 'NONE', ( #104, #11, #88, #36 ) ) ;
#128 = APPLICATION_CONTEXT ( 'configuration controlled 3d designs of mechanical parts and assemblies' ) ;
#129 = VECTOR ( 'NONE', #34, 1000.000000000000000 ) ;
#130 = APPROVAL_PERSON_ORGANIZATION ( #233, #236, #111 ) ;
#131 = SECURITY_CLASSIFICATION_LEVEL ( 'unclassified' ) ;
#132 = VERTEX_POINT ( 'NONE', #99 ) ;
#133 = PLANE ( 'NONE',  #25 ) ;
#134 = EDGE_CURVE ( 'NONE', #132, #215, #92, .T. ) ;
#135 = DIRECTION ( 'NONE',  ( -1.000000000000000000, -0.0000000000000000000, -0.0000000000000000000 ) ) ;
#136 = ORIENTED_EDGE ( 'NONE', *, *, #146, .F. ) ;
#137 = EDGE_CURVE ( 'NONE', #202, #41, #52, .T. ) ;
#138 = LINE ( 'NONE', #186, #192 ) ;
#139 = PERSON_AND_ORGANIZATION_ROLE ( 'creator' ) ;
#140 = DATE_TIME_ROLE ( 'classification_date' ) ;
#141 = CALENDAR_DATE ( 2017, 1, 3 ) ;
#142 = VERTEX_POINT ( 'NONE', #56 ) ;
#143 = SECURITY_CLASSIFICATION ( '', '', #131 ) ;
#144 = ORIENTED_EDGE ( 'NONE', *, *, #51, .T. ) ;
#145 = ORIENTED_EDGE ( 'NONE', *, *, #110, .F. ) ;
#146 = EDGE_CURVE ( 'NONE', #41, #209, #12, .T. ) ;
#147 = APPLICATION_CONTEXT ( 'configuration controlled 3d designs of mechanical parts and assemblies' ) ;
#148 = APPROVAL_ROLE ( '' ) ;
#149 = FACE_OUTER_BOUND ( 'NONE', #30, .T. ) ;
#150 = CARTESIAN_POINT ( 'NONE',  ( 0.0000000000000000000, 0.0000000000000000000, 3.000000000000000000 ) ) ;
#151 = DATE_TIME_ROLE ( 'creation_date' ) ;
#152 = VECTOR ( 'NONE', #235, 1000.000000000000000 ) ;
#153 = CLOSED_SHELL ( 'NONE', ( #83, #212, #155, #65, #185, #74 ) ) ;
#154 = CC_DESIGN_DATE_AND_TIME_ASSIGNMENT ( #163, #151, ( #81 ) ) ;
#155 = ADVANCED_FACE ( 'NONE', ( #98 ), #133, .F. ) ;
#156 = PERSON ( 'UNSPECIFIED', 'UNSPECIFIED', 'UNSPECIFIED', ('UNSPECIFIED'), ('UNSPECIFIED'), ('UNSPECIFIED') ) ;
#157 = PRODUCT_RELATED_PRODUCT_CATEGORY ( 'detail', '', ( #124 ) ) ;
#158 = DIRECTION ( 'NONE',  ( 0.0000000000000000000, 1.000000000000000000, 0.0000000000000000000 ) ) ;
#159 = DIRECTION ( 'NONE',  ( -0.0000000000000000000, -0.0000000000000000000, -1.000000000000000000 ) ) ;
#160 = CARTESIAN_POINT ( 'NONE',  ( 50.00000000000000000, 50.00000000000000000, 0.0000000000000000000 ) ) ;
#161 = DATE_AND_TIME ( #141, #109 ) ;
#162 = DIRECTION ( 'NONE',  ( 0.0000000000000000000, 0.0000000000000000000, 1.000000000000000000 ) ) ;
#163 = DATE_AND_TIME ( #64, #31 ) ;
#164 = DATE_AND_TIME ( #123, #226 ) ;
#165 = ORIENTED_EDGE ( 'NONE', *, *, #191, .F. ) ;
#166 = ORGANIZATION ( 'UNSPECIFIED', 'UNSPECIFIED', '' ) ;
#167 = DIRECTION ( 'NONE',  ( -1.000000000000000000, 0.0000000000000000000, 0.0000000000000000000 ) ) ;
#168 = VECTOR ( 'NONE', #94, 1000.000000000000000 ) ;
#169 = CARTESIAN_POINT ( 'NONE',  ( 0.0000000000000000000, 50.00000000000000000, 3.000000000000000000 ) ) ;
#170 = DIRECTION ( 'NONE',  ( -0.0000000000000000000, -1.000000000000000000, -0.0000000000000000000 ) ) ;
#171 = SHAPE_DEFINITION_REPRESENTATION ( #194, #2 ) ;
#172 = COORDINATED_UNIVERSAL_TIME_OFFSET ( 5, 0, .BEHIND. ) ;
#173 = COORDINATED_UNIVERSAL_TIME_OFFSET ( 5, 0, .BEHIND. ) ;
#174 = EDGE_CURVE ( 'NONE', #4, #195, #227, .T. ) ;
#175 = DIRECTION ( 'NONE',  ( 1.000000000000000000, 0.0000000000000000000, 0.0000000000000000000 ) ) ;
#176 = ORIENTED_EDGE ( 'NONE', *, *, #223, .T. ) ;
#177 = APPROVAL_DATE_TIME ( #232, #38 ) ;
#178 = CARTESIAN_POINT ( 'NONE',  ( 0.0000000000000000000, 0.0000000000000000000, 0.0000000000000000000 ) ) ;
#179 = CARTESIAN_POINT ( 'NONE',  ( 0.0000000000000000000, 50.00000000000000000, 3.000000000000000000 ) ) ;
#180 = CC_DESIGN_PERSON_AND_ORGANIZATION_ASSIGNMENT ( #28, #181, ( #24 ) ) ;
#181 = PERSON_AND_ORGANIZATION_ROLE ( 'creator' ) ;
#182 = DIRECTION ( 'NONE',  ( 0.0000000000000000000, -0.0000000000000000000, 1.000000000000000000 ) ) ;
#183 = LOCAL_TIME ( 13, 33, 0.0000000000000000000, #49 ) ;
#184 = DIRECTION ( 'NONE',  ( 1.000000000000000000, 0.0000000000000000000, 0.0000000000000000000 ) ) ;
#185 = ADVANCED_FACE ( 'NONE', ( #60 ), #106, .F. ) ;
#186 = CARTESIAN_POINT ( 'NONE',  ( 0.0000000000000000000, 0.0000000000000000000, 3.000000000000000000 ) ) ;
#187 = ORIENTED_EDGE ( 'NONE', *, *, #146, .T. ) ;
#188 = CC_DESIGN_SECURITY_CLASSIFICATION ( #143, ( #24 ) ) ;
#189 = FACE_OUTER_BOUND ( 'NONE', #95, .T. ) ;
#190 = MECHANICAL_CONTEXT ( 'NONE', #147, 'mechanical' ) ;
#191 = EDGE_CURVE ( 'NONE', #202, #4, #27, .T. ) ;
#192 = VECTOR ( 'NONE', #175, 1000.000000000000000 ) ;
#193 = VECTOR ( 'NONE', #210, 1000.000000000000000 ) ;
#194 = PRODUCT_DEFINITION_SHAPE ( 'NONE', 'NONE',  #81 ) ;
#195 = VERTEX_POINT ( 'NONE', #73 ) ;
#196 = AXIS2_PLACEMENT_3D ( 'NONE', #63, #214, #200 ) ;
#197 = APPROVAL_PERSON_ORGANIZATION ( #29, #38, #126 ) ;
#198 = CC_DESIGN_PERSON_AND_ORGANIZATION_ASSIGNMENT ( #101, #117, ( #143 ) ) ;
#199 = EDGE_CURVE ( 'NONE', #142, #215, #118, .T. ) ;
#200 = DIRECTION ( 'NONE',  ( 0.0000000000000000000, -0.0000000000000000000, -1.000000000000000000 ) ) ;
#201 = CARTESIAN_POINT ( 'NONE',  ( 0.0000000000000000000, 0.0000000000000000000, 3.000000000000000000 ) ) ;
#202 = VERTEX_POINT ( 'NONE', #80 ) ;
#203 = AXIS2_PLACEMENT_3D ( 'NONE', #91, #162, #85 ) ;
#204 = CARTESIAN_POINT ( 'NONE',  ( 50.00000000000000000, 0.0000000000000000000, 3.000000000000000000 ) ) ;
#205 = DESIGN_CONTEXT ( 'detailed design', #128, 'design' ) ;
#206 = CALENDAR_DATE ( 2017, 1, 3 ) ;
#207 = CARTESIAN_POINT ( 'NONE',  ( 50.00000000000000000, 0.0000000000000000000, 0.0000000000000000000 ) ) ;
#208 = CALENDAR_DATE ( 2017, 1, 3 ) ;
#209 = VERTEX_POINT ( 'NONE', #160 ) ;
#210 = DIRECTION ( 'NONE',  ( -0.0000000000000000000, -0.0000000000000000000, -1.000000000000000000 ) ) ;
#211 = PERSON_AND_ORGANIZATION ( #156, #166 ) ;
#212 = ADVANCED_FACE ( 'NONE', ( #61 ), #39, .F. ) ;
#213 = PERSON_AND_ORGANIZATION ( #156, #166 ) ;
#214 = DIRECTION ( 'NONE',  ( 0.0000000000000000000, -1.000000000000000000, 0.0000000000000000000 ) ) ;
#215 = VERTEX_POINT ( 'NONE', #112 ) ;
#216 = EDGE_LOOP ( 'NONE', ( #105, #116, #71, #40 ) ) ;
#217 = ORIENTED_EDGE ( 'NONE', *, *, #199, .F. ) ;
#218 = DIRECTION ( 'NONE',  ( 0.0000000000000000000, 0.0000000000000000000, -1.000000000000000000 ) ) ;
#219 = LINE ( 'NONE', #44, #129 ) ;
#220 = PERSON_AND_ORGANIZATION_ROLE ( 'design_supplier' ) ;
#221 = APPLICATION_PROTOCOL_DEFINITION ( 'international standard', 'config_control_design', 1994, #128 ) ;
#222 = ORIENTED_EDGE ( 'NONE', *, *, #174, .T. ) ;
#223 = EDGE_CURVE ( 'NONE', #4, #209, #78, .T. ) ;
#224 = ORIENTED_EDGE ( 'NONE', *, *, #237, .F. ) ;
#225 = CARTESIAN_POINT ( 'NONE',  ( 50.00000000000000000, 50.00000000000000000, 3.000000000000000000 ) ) ;
#226 = LOCAL_TIME ( 13, 33, 0.0000000000000000000, #172 ) ;
#227 = LINE ( 'NONE', #179, #102 ) ;
#228 =( LENGTH_UNIT ( ) NAMED_UNIT ( * ) SI_UNIT ( .MILLI., .METRE. ) );
#229 = ORIENTED_EDGE ( 'NONE', *, *, #174, .F. ) ;
#230 = DATE_AND_TIME ( #206, #183 ) ;
#231 = PLANE ( 'NONE',  #196 ) ;
#232 = DATE_AND_TIME ( #208, #121 ) ;
#233 = PERSON_AND_ORGANIZATION ( #156, #166 ) ;
#234 = ORIENTED_EDGE ( 'NONE', *, *, #191, .T. ) ;
#235 = DIRECTION ( 'NONE',  ( 0.0000000000000000000, 1.000000000000000000, 0.0000000000000000000 ) ) ;
#236 = APPROVAL ( #1, 'UNSPECIFIED' ) ;
#237 = EDGE_CURVE ( 'NONE', #195, #142, #115, .T. ) ;
ENDSEC;
END-ISO-10303-21;
