ISO-10303-21;
HEADER;
FILE_DESCRIPTION (( 'STEP AP203' ),
    '1' );
FILE_NAME ('Web Model 84453_47198.step',
    '2017-04-03T16:46:21',
    ( '' ),
    ( '' ),
    'SwSTEP 2.0',
    'SolidWorks 2016',
    '' );
FILE_SCHEMA (( 'CONFIG_CONTROL_DESIGN' ));
ENDSEC;

DATA;
#1 = COORDINATED_UNIVERSAL_TIME_OFFSET ( 5, 0, .BEHIND. ) ;
#2 = AXIS2_PLACEMENT_3D ( 'NONE', #68, #133, #79 ) ;
#3 = CYLINDRICAL_SURFACE ( 'NONE', #13, 7.500000000000000000 ) ;
#4 = CARTESIAN_POINT ( 'NONE',  ( 7.500000000000000000, 0.0000000000000000000, -2.000000000000000000 ) ) ;
#5 = FACE_OUTER_BOUND ( 'NONE', #10, .T. ) ;
#6 = DIRECTION ( 'NONE',  ( 0.0000000000000000000, 0.0000000000000000000, 1.000000000000000000 ) ) ;
#7 = VERTEX_POINT ( 'NONE', #81 ) ;
#8 =( NAMED_UNIT ( * ) PLANE_ANGLE_UNIT ( ) SI_UNIT ( $, .RADIAN. ) );
#9 = DATE_AND_TIME ( #42, #83 ) ;
#10 = EDGE_LOOP ( 'NONE', ( #111, #150 ) ) ;
#11 = ADVANCED_BREP_SHAPE_REPRESENTATION ( 'Web Model 84453_47198', ( #128, #174 ), #164 ) ;
#12 = ORIENTED_EDGE ( 'NONE', *, *, #158, .F. ) ;
#13 = AXIS2_PLACEMENT_3D ( 'NONE', #168, #169, #67 ) ;
#14 = PERSON_AND_ORGANIZATION ( #85, #148 ) ;
#15 = ADVANCED_FACE ( 'NONE', ( #5 ), #59, .F. ) ;
#16 = ADVANCED_FACE ( 'NONE', ( #152 ), #62, .T. ) ;
#17 = APPROVAL_STATUS ( 'not_yet_approved' ) ;
#18 = ADVANCED_FACE ( 'NONE', ( #37 ), #3, .T. ) ;
#19 = ADVANCED_FACE ( 'NONE', ( #30 ), #116, .T. ) ;
#20 = CIRCLE ( 'NONE', #96, 7.500000000000000000 ) ;
#21 = SECURITY_CLASSIFICATION ( '', '', #84 ) ;
#22 = PERSON_AND_ORGANIZATION ( #85, #148 ) ;
#23 = APPROVAL_ROLE ( '' ) ;
#24 = CALENDAR_DATE ( 2017, 3, 4 ) ;
#25 = VERTEX_POINT ( 'NONE', #161 ) ;
#26 = DATE_AND_TIME ( #63, #101 ) ;
#27 = AXIS2_PLACEMENT_3D ( 'NONE', #70, #88, #109 ) ;
#28 = PRODUCT_DEFINITION_FORMATION_WITH_SPECIFIED_SOURCE ( 'ANY', '', #99, .NOT_KNOWN. ) ;
#29 = CC_DESIGN_PERSON_AND_ORGANIZATION_ASSIGNMENT ( #110, #155, ( #99 ) ) ;
#30 = FACE_OUTER_BOUND ( 'NONE', #166, .T. ) ;
#31 = CARTESIAN_POINT ( 'NONE',  ( 0.0000000000000000000, 0.0000000000000000000, 0.0000000000000000000 ) ) ;
#32 = APPROVAL_ROLE ( '' ) ;
#33 = CARTESIAN_POINT ( 'NONE',  ( 0.0000000000000000000, 0.0000000000000000000, -2.000000000000000000 ) ) ;
#34 = APPROVAL_DATE_TIME ( #66, #137 ) ;
#35 = APPROVAL_PERSON_ORGANIZATION ( #72, #137, #126 ) ;
#36 = VERTEX_POINT ( 'NONE', #64 ) ;
#37 = FACE_OUTER_BOUND ( 'NONE', #65, .T. ) ;
#38 = VECTOR ( 'NONE', #86, 1000.000000000000000 ) ;
#39 = DIRECTION ( 'NONE',  ( 1.000000000000000000, 0.0000000000000000000, -0.0000000000000000000 ) ) ;
#40 = PERSON_AND_ORGANIZATION_ROLE ( 'design_supplier' ) ;
#41 = AXIS2_PLACEMENT_3D ( 'NONE', #119, #52, #39 ) ;
#42 = CALENDAR_DATE ( 2017, 3, 4 ) ;
#43 = AXIS2_PLACEMENT_3D ( 'NONE', #31, #172, #118 ) ;
#44 = ORIENTED_EDGE ( 'NONE', *, *, #140, .T. ) ;
#45 = DATE_AND_TIME ( #89, #120 ) ;
#46 = AXIS2_PLACEMENT_3D ( 'NONE', #55, #6, #153 ) ;
#47 = LINE ( 'NONE', #4, #144 ) ;
#48 = PERSON_AND_ORGANIZATION ( #85, #148 ) ;
#49 = DIRECTION ( 'NONE',  ( 0.0000000000000000000, 0.0000000000000000000, 1.000000000000000000 ) ) ;
#50 = PRODUCT_RELATED_PRODUCT_CATEGORY ( 'detail', '', ( #99 ) ) ;
#51 = APPROVAL_STATUS ( 'not_yet_approved' ) ;
#52 = DIRECTION ( 'NONE',  ( 0.0000000000000000000, 0.0000000000000000000, 1.000000000000000000 ) ) ;
#53 = CC_DESIGN_PERSON_AND_ORGANIZATION_ASSIGNMENT ( #48, #40, ( #28 ) ) ;
#54 = APPLICATION_PROTOCOL_DEFINITION ( 'international standard', 'config_control_design', 1994, #75 ) ;
#55 = CARTESIAN_POINT ( 'NONE',  ( 0.0000000000000000000, 0.0000000000000000000, -2.000000000000000000 ) ) ;
#56 = LOCAL_TIME ( 12, 46, 21.00000000000000000, #97 ) ;
#57 = PRODUCT_DEFINITION ( 'UNKNOWN', '', #28, #87 ) ;
#58 = CARTESIAN_POINT ( 'NONE',  ( -7.500000000000000000, 9.184850993605147900E-016, -2.000000000000000000 ) ) ;
#59 = PLANE ( 'NONE',  #2 ) ;
#60 = CLOSED_SHELL ( 'NONE', ( #19, #18, #15, #16 ) ) ;
#61 = APPLICATION_CONTEXT ( 'configuration controlled 3d designs of mechanical parts and assemblies' ) ;
#62 = PLANE ( 'NONE',  #41 ) ;
#63 = CALENDAR_DATE ( 2017, 3, 4 ) ;
#64 = CARTESIAN_POINT ( 'NONE',  ( 7.500000000000000000, 0.0000000000000000000, -2.000000000000000000 ) ) ;
#65 = EDGE_LOOP ( 'NONE', ( #159, #114, #90, #12 ) ) ;
#66 = DATE_AND_TIME ( #106, #143 ) ;
#67 = DIRECTION ( 'NONE',  ( 1.000000000000000000, 0.0000000000000000000, 0.0000000000000000000 ) ) ;
#68 = CARTESIAN_POINT ( 'NONE',  ( 0.0000000000000000000, 0.0000000000000000000, -2.000000000000000000 ) ) ;
#69 = ORIENTED_EDGE ( 'NONE', *, *, #138, .F. ) ;
#70 = CARTESIAN_POINT ( 'NONE',  ( 0.0000000000000000000, 0.0000000000000000000, -2.000000000000000000 ) ) ;
#71 = PERSON_AND_ORGANIZATION_ROLE ( 'creator' ) ;
#72 = PERSON_AND_ORGANIZATION ( #85, #148 ) ;
#73 = DATE_TIME_ROLE ( 'creation_date' ) ;
#74 = ORIENTED_EDGE ( 'NONE', *, *, #134, .F. ) ;
#75 = APPLICATION_CONTEXT ( 'configuration controlled 3d designs of mechanical parts and assemblies' ) ;
#76 = CC_DESIGN_APPROVAL ( #167, ( #21 ) ) ;
#77 = LINE ( 'NONE', #58, #38 ) ;
#78 = AXIS2_PLACEMENT_3D ( 'NONE', #33, #142, #115 ) ;
#79 = DIRECTION ( 'NONE',  ( 1.000000000000000000, 0.0000000000000000000, -0.0000000000000000000 ) ) ;
#80 = DIRECTION ( 'NONE',  ( 0.0000000000000000000, 0.0000000000000000000, 1.000000000000000000 ) ) ;
#81 = CARTESIAN_POINT ( 'NONE',  ( 7.500000000000000000, 0.0000000000000000000, 0.0000000000000000000 ) ) ;
#82 = DATE_TIME_ROLE ( 'classification_date' ) ;
#83 = LOCAL_TIME ( 12, 46, 21.00000000000000000, #117 ) ;
#84 = SECURITY_CLASSIFICATION_LEVEL ( 'unclassified' ) ;
#85 = PERSON ( 'UNSPECIFIED', 'UNSPECIFIED', 'UNSPECIFIED', ('UNSPECIFIED'), ('UNSPECIFIED'), ('UNSPECIFIED') ) ;
#86 = DIRECTION ( 'NONE',  ( 0.0000000000000000000, 0.0000000000000000000, 1.000000000000000000 ) ) ;
#87 = DESIGN_CONTEXT ( 'detailed design', #61, 'design' ) ;
#88 = DIRECTION ( 'NONE',  ( 0.0000000000000000000, 0.0000000000000000000, 1.000000000000000000 ) ) ;
#89 = CALENDAR_DATE ( 2017, 3, 4 ) ;
#90 = ORIENTED_EDGE ( 'NONE', *, *, #134, .T. ) ;
#91 = PERSON_AND_ORGANIZATION ( #85, #148 ) ;
#92 = PERSON_AND_ORGANIZATION_ROLE ( 'classification_officer' ) ;
#93 = CC_DESIGN_DATE_AND_TIME_ASSIGNMENT ( #26, #73, ( #57 ) ) ;
#94 = CC_DESIGN_SECURITY_CLASSIFICATION ( #21, ( #28 ) ) ;
#95 = CIRCLE ( 'NONE', #46, 7.500000000000000000 ) ;
#96 = AXIS2_PLACEMENT_3D ( 'NONE', #124, #80, #113 ) ;
#97 = COORDINATED_UNIVERSAL_TIME_OFFSET ( 5, 0, .BEHIND. ) ;
#98 =( NAMED_UNIT ( * ) SI_UNIT ( $, .STERADIAN. ) SOLID_ANGLE_UNIT ( ) );
#99 = PRODUCT ( 'Web Model 84453_47198', 'Web Model 84453_47198', '', ( #130 ) ) ;
#100 = SHAPE_DEFINITION_REPRESENTATION ( #102, #11 ) ;
#101 = LOCAL_TIME ( 12, 46, 21.00000000000000000, #135 ) ;
#102 = PRODUCT_DEFINITION_SHAPE ( 'NONE', 'NONE',  #57 ) ;
#103 = EDGE_LOOP ( 'NONE', ( #121, #107 ) ) ;
#104 =( LENGTH_UNIT ( ) NAMED_UNIT ( * ) SI_UNIT ( .MILLI., .METRE. ) );
#105 = APPROVAL_STATUS ( 'not_yet_approved' ) ;
#106 = CALENDAR_DATE ( 2017, 3, 4 ) ;
#107 = ORIENTED_EDGE ( 'NONE', *, *, #158, .T. ) ;
#108 = DIRECTION ( 'NONE',  ( 1.000000000000000000, 0.0000000000000000000, 0.0000000000000000000 ) ) ;
#109 = DIRECTION ( 'NONE',  ( 1.000000000000000000, 0.0000000000000000000, 0.0000000000000000000 ) ) ;
#110 = PERSON_AND_ORGANIZATION ( #85, #148 ) ;
#111 = ORIENTED_EDGE ( 'NONE', *, *, #139, .F. ) ;
#112 = CC_DESIGN_APPROVAL ( #125, ( #28 ) ) ;
#113 = DIRECTION ( 'NONE',  ( 1.000000000000000000, 0.0000000000000000000, 0.0000000000000000000 ) ) ;
#114 = ORIENTED_EDGE ( 'NONE', *, *, #149, .T. ) ;
#115 = DIRECTION ( 'NONE',  ( 1.000000000000000000, 0.0000000000000000000, 0.0000000000000000000 ) ) ;
#116 = CYLINDRICAL_SURFACE ( 'NONE', #78, 7.500000000000000000 ) ;
#117 = COORDINATED_UNIVERSAL_TIME_OFFSET ( 5, 0, .BEHIND. ) ;
#118 = DIRECTION ( 'NONE',  ( 1.000000000000000000, 0.0000000000000000000, 0.0000000000000000000 ) ) ;
#119 = CARTESIAN_POINT ( 'NONE',  ( 0.0000000000000000000, 0.0000000000000000000, 0.0000000000000000000 ) ) ;
#120 = LOCAL_TIME ( 12, 46, 21.00000000000000000, #157 ) ;
#121 = ORIENTED_EDGE ( 'NONE', *, *, #138, .T. ) ;
#122 = APPROVAL_DATE_TIME ( #163, #125 ) ;
#123 = CARTESIAN_POINT ( 'NONE',  ( 0.0000000000000000000, 0.0000000000000000000, 0.0000000000000000000 ) ) ;
#124 = CARTESIAN_POINT ( 'NONE',  ( 0.0000000000000000000, 0.0000000000000000000, 0.0000000000000000000 ) ) ;
#125 = APPROVAL ( #105, 'UNSPECIFIED' ) ;
#126 = APPROVAL_ROLE ( '' ) ;
#127 = CIRCLE ( 'NONE', #27, 7.500000000000000000 ) ;
#128 = MANIFOLD_SOLID_BREP ( 'Extrude1', #60 ) ;
#129 = APPROVAL_PERSON_ORGANIZATION ( #170, #125, #32 ) ;
#130 = MECHANICAL_CONTEXT ( 'NONE', #75, 'mechanical' ) ;
#131 = CC_DESIGN_PERSON_AND_ORGANIZATION_ASSIGNMENT ( #22, #92, ( #21 ) ) ;
#132 = CC_DESIGN_APPROVAL ( #137, ( #57 ) ) ;
#133 = DIRECTION ( 'NONE',  ( 0.0000000000000000000, 0.0000000000000000000, 1.000000000000000000 ) ) ;
#134 = EDGE_CURVE ( 'NONE', #36, #7, #47, .T. ) ;
#135 = COORDINATED_UNIVERSAL_TIME_OFFSET ( 5, 0, .BEHIND. ) ;
#136 = CARTESIAN_POINT ( 'NONE',  ( -7.500000000000000000, 9.184850993605147900E-016, 0.0000000000000000000 ) ) ;
#137 = APPROVAL ( #17, 'UNSPECIFIED' ) ;
#138 = EDGE_CURVE ( 'NONE', #7, #156, #20, .T. ) ;
#139 = EDGE_CURVE ( 'NONE', #36, #25, #127, .T. ) ;
#140 = EDGE_CURVE ( 'NONE', #25, #156, #77, .T. ) ;
#141 = ORIENTED_EDGE ( 'NONE', *, *, #139, .T. ) ;
#142 = DIRECTION ( 'NONE',  ( 0.0000000000000000000, 0.0000000000000000000, 1.000000000000000000 ) ) ;
#143 = LOCAL_TIME ( 12, 46, 21.00000000000000000, #1 ) ;
#144 = VECTOR ( 'NONE', #162, 1000.000000000000000 ) ;
#145 = CC_DESIGN_DATE_AND_TIME_ASSIGNMENT ( #45, #82, ( #21 ) ) ;
#146 = UNCERTAINTY_MEASURE_WITH_UNIT (LENGTH_MEASURE( 1.000000000000000100E-005 ), #104, 'distance_accuracy_value', 'NONE');
#147 = APPLICATION_PROTOCOL_DEFINITION ( 'international standard', 'config_control_design', 1994, #61 ) ;
#148 = ORGANIZATION ( 'UNSPECIFIED', 'UNSPECIFIED', '' ) ;
#149 = EDGE_CURVE ( 'NONE', #25, #36, #95, .T. ) ;
#150 = ORIENTED_EDGE ( 'NONE', *, *, #149, .F. ) ;
#151 = APPROVAL_DATE_TIME ( #9, #167 ) ;
#152 = FACE_OUTER_BOUND ( 'NONE', #103, .T. ) ;
#153 = DIRECTION ( 'NONE',  ( 1.000000000000000000, 0.0000000000000000000, 0.0000000000000000000 ) ) ;
#154 = APPROVAL_PERSON_ORGANIZATION ( #14, #167, #23 ) ;
#155 = PERSON_AND_ORGANIZATION_ROLE ( 'design_owner' ) ;
#156 = VERTEX_POINT ( 'NONE', #136 ) ;
#157 = COORDINATED_UNIVERSAL_TIME_OFFSET ( 5, 0, .BEHIND. ) ;
#158 = EDGE_CURVE ( 'NONE', #156, #7, #171, .T. ) ;
#159 = ORIENTED_EDGE ( 'NONE', *, *, #140, .F. ) ;
#160 = CC_DESIGN_PERSON_AND_ORGANIZATION_ASSIGNMENT ( #173, #71, ( #57 ) ) ;
#161 = CARTESIAN_POINT ( 'NONE',  ( -7.500000000000000000, 9.184850993605147900E-016, -2.000000000000000000 ) ) ;
#162 = DIRECTION ( 'NONE',  ( 0.0000000000000000000, 0.0000000000000000000, 1.000000000000000000 ) ) ;
#163 = DATE_AND_TIME ( #24, #56 ) ;
#164 =( GEOMETRIC_REPRESENTATION_CONTEXT ( 3 ) GLOBAL_UNCERTAINTY_ASSIGNED_CONTEXT ( ( #146 ) ) GLOBAL_UNIT_ASSIGNED_CONTEXT ( ( #104, #8, #98 ) ) REPRESENTATION_CONTEXT ( 'NONE', 'WORKASPACE' ) );
#165 = CC_DESIGN_PERSON_AND_ORGANIZATION_ASSIGNMENT ( #91, #175, ( #28 ) ) ;
#166 = EDGE_LOOP ( 'NONE', ( #141, #44, #69, #74 ) ) ;
#167 = APPROVAL ( #51, 'UNSPECIFIED' ) ;
#168 = CARTESIAN_POINT ( 'NONE',  ( 0.0000000000000000000, 0.0000000000000000000, -2.000000000000000000 ) ) ;
#169 = DIRECTION ( 'NONE',  ( 0.0000000000000000000, 0.0000000000000000000, 1.000000000000000000 ) ) ;
#170 = PERSON_AND_ORGANIZATION ( #85, #148 ) ;
#171 = CIRCLE ( 'NONE', #43, 7.500000000000000000 ) ;
#172 = DIRECTION ( 'NONE',  ( 0.0000000000000000000, 0.0000000000000000000, 1.000000000000000000 ) ) ;
#173 = PERSON_AND_ORGANIZATION ( #85, #148 ) ;
#174 = AXIS2_PLACEMENT_3D ( 'NONE', #123, #49, #108 ) ;
#175 = PERSON_AND_ORGANIZATION_ROLE ( 'creator' ) ;
ENDSEC;
END-ISO-10303-21;
