ISO-10303-21;
HEADER;
FILE_DESCRIPTION (( 'STEP AP203' ),
    '1' );
FILE_NAME ('Web Model 68429.STEP',
    '2017-01-31T20:03:13',
    ( '' ),
    ( '' ),
    'SwSTEP 2.0',
    'SolidWorks 2016',
    '' );
FILE_SCHEMA (( 'CONFIG_CONTROL_DESIGN' ));
ENDSEC;

DATA;
#1 =( NAMED_UNIT ( * ) SI_UNIT ( $, .STERADIAN. ) SOLID_ANGLE_UNIT ( ) );
#2 = EDGE_CURVE ( 'NONE', #175, #179, #212, .T. ) ;
#3 = APPROVAL ( #129, 'UNSPECIFIED' ) ;
#4 = ORIENTED_EDGE ( 'NONE', *, *, #227, .T. ) ;
#5 = ADVANCED_FACE ( 'NONE', ( #52 ), #31, .F. ) ;
#6 = DATE_AND_TIME ( #113, #159 ) ;
#7 = VERTEX_POINT ( 'NONE', #209 ) ;
#8 = AXIS2_PLACEMENT_3D ( 'NONE', #59, #235, #130 ) ;
#9 = PERSON_AND_ORGANIZATION ( #51, #150 ) ;
#10 = FACE_OUTER_BOUND ( 'NONE', #189, .T. ) ;
#11 = DATE_AND_TIME ( #200, #141 ) ;
#12 = ORIENTED_EDGE ( 'NONE', *, *, #110, .F. ) ;
#13 = ORIENTED_EDGE ( 'NONE', *, *, #74, .T. ) ;
#14 = PLANE ( 'NONE',  #93 ) ;
#15 = LOCAL_TIME ( 15, 3, 13.00000000000000000, #224 ) ;
#16 = PLANE ( 'NONE',  #191 ) ;
#17 = CC_DESIGN_PERSON_AND_ORGANIZATION_ASSIGNMENT ( #184, #202, ( #171 ) ) ;
#18 = CARTESIAN_POINT ( 'NONE',  ( -24.99999999999999300, -25.00000000000000000, 3.000000000000000000 ) ) ;
#19 = ORIENTED_EDGE ( 'NONE', *, *, #28, .F. ) ;
#20 = APPLICATION_PROTOCOL_DEFINITION ( 'international standard', 'config_control_design', 1994, #90 ) ;
#21 = CC_DESIGN_APPROVAL ( #3, ( #166 ) ) ;
#22 = APPLICATION_PROTOCOL_DEFINITION ( 'international standard', 'config_control_design', 1994, #94 ) ;
#23 = VECTOR ( 'NONE', #126, 1000.000000000000000 ) ;
#24 = PERSON_AND_ORGANIZATION_ROLE ( 'creator' ) ;
#25 = SECURITY_CLASSIFICATION ( '', '', #92 ) ;
#26 = ADVANCED_FACE ( 'NONE', ( #119 ), #210, .F. ) ;
#27 = PERSON_AND_ORGANIZATION ( #51, #150 ) ;
#28 = EDGE_CURVE ( 'NONE', #172, #145, #188, .T. ) ;
#29 = UNCERTAINTY_MEASURE_WITH_UNIT (LENGTH_MEASURE( 1.000000000000000100E-005 ), #72, 'distance_accuracy_value', 'NONE');
#30 = ORIENTED_EDGE ( 'NONE', *, *, #110, .T. ) ;
#31 = PLANE ( 'NONE',  #57 ) ;
#32 = AXIS2_PLACEMENT_3D ( 'NONE', #208, #83, #84 ) ;
#33 = PLANE ( 'NONE',  #32 ) ;
#34 = EDGE_LOOP ( 'NONE', ( #101, #44, #89, #96 ) ) ;
#35 = EDGE_CURVE ( 'NONE', #7, #172, #118, .T. ) ;
#36 = CARTESIAN_POINT ( 'NONE',  ( 25.00000000000000700, -24.99999999999999300, 3.000000000000000000 ) ) ;
#37 = COORDINATED_UNIVERSAL_TIME_OFFSET ( 5, 0, .BEHIND. ) ;
#38 = ORIENTED_EDGE ( 'NONE', *, *, #176, .F. ) ;
#39 =( GEOMETRIC_REPRESENTATION_CONTEXT ( 3 ) GLOBAL_UNCERTAINTY_ASSIGNED_CONTEXT ( ( #29 ) ) GLOBAL_UNIT_ASSIGNED_CONTEXT ( ( #72, #174, #1 ) ) REPRESENTATION_CONTEXT ( 'NONE', 'WORKASPACE' ) );
#40 = DIRECTION ( 'NONE',  ( -1.000000000000000000, 0.0000000000000000000, -0.0000000000000000000 ) ) ;
#41 = DIRECTION ( 'NONE',  ( 0.0000000000000000000, 0.0000000000000000000, -1.000000000000000000 ) ) ;
#42 = DIRECTION ( 'NONE',  ( -0.0000000000000000000, -0.0000000000000000000, -1.000000000000000000 ) ) ;
#43 = CC_DESIGN_PERSON_AND_ORGANIZATION_ASSIGNMENT ( #186, #116, ( #25 ) ) ;
#44 = ORIENTED_EDGE ( 'NONE', *, *, #97, .F. ) ;
#45 = DIRECTION ( 'NONE',  ( -1.387778780781445400E-016, 1.000000000000000000, 0.0000000000000000000 ) ) ;
#46 = APPROVAL_STATUS ( 'not_yet_approved' ) ;
#47 = EDGE_LOOP ( 'NONE', ( #160, #12, #19, #120 ) ) ;
#48 = CC_DESIGN_PERSON_AND_ORGANIZATION_ASSIGNMENT ( #27, #218, ( #171 ) ) ;
#49 = LINE ( 'NONE', #106, #23 ) ;
#50 = PERSON_AND_ORGANIZATION ( #51, #150 ) ;
#51 = PERSON ( 'UNSPECIFIED', 'UNSPECIFIED', 'UNSPECIFIED', ('UNSPECIFIED'), ('UNSPECIFIED'), ('UNSPECIFIED') ) ;
#52 = FACE_OUTER_BOUND ( 'NONE', #47, .T. ) ;
#53 = CC_DESIGN_DATE_AND_TIME_ASSIGNMENT ( #11, #132, ( #25 ) ) ;
#54 = CARTESIAN_POINT ( 'NONE',  ( 25.00000000000000700, -24.99999999999999300, 0.0000000000000000000 ) ) ;
#55 = CC_DESIGN_SECURITY_CLASSIFICATION ( #25, ( #171 ) ) ;
#56 = DIRECTION ( 'NONE',  ( 1.387778780781445400E-016, -1.000000000000000000, 0.0000000000000000000 ) ) ;
#57 = AXIS2_PLACEMENT_3D ( 'NONE', #36, #231, #69 ) ;
#58 = CARTESIAN_POINT ( 'NONE',  ( 24.99999999999999600, 25.00000000000001100, 0.0000000000000000000 ) ) ;
#59 = CARTESIAN_POINT ( 'NONE',  ( 0.0000000000000000000, 0.0000000000000000000, 0.0000000000000000000 ) ) ;
#60 = CARTESIAN_POINT ( 'NONE',  ( 25.00000000000000700, -24.99999999999999300, 3.000000000000000000 ) ) ;
#61 = MECHANICAL_CONTEXT ( 'NONE', #90, 'mechanical' ) ;
#62 = DATE_AND_TIME ( #108, #15 ) ;
#63 = AXIS2_PLACEMENT_3D ( 'NONE', #128, #214, #45 ) ;
#64 = VECTOR ( 'NONE', #207, 1000.000000000000000 ) ;
#65 = APPROVAL_DATE_TIME ( #6, #213 ) ;
#66 = DIRECTION ( 'NONE',  ( 1.000000000000000000, 1.387778780781445700E-016, -0.0000000000000000000 ) ) ;
#67 = CARTESIAN_POINT ( 'NONE',  ( 24.99999999999999600, 25.00000000000001100, 3.000000000000000000 ) ) ;
#68 = LINE ( 'NONE', #143, #144 ) ;
#69 = DIRECTION ( 'NONE',  ( -1.000000000000000000, -1.387778780781445400E-016, 0.0000000000000000000 ) ) ;
#70 = VECTOR ( 'NONE', #66, 1000.000000000000000 ) ;
#71 = MANIFOLD_SOLID_BREP ( 'Extrude1', #131 ) ;
#72 =( LENGTH_UNIT ( ) NAMED_UNIT ( * ) SI_UNIT ( .MILLI., .METRE. ) );
#73 = PERSON_AND_ORGANIZATION ( #51, #150 ) ;
#74 = EDGE_CURVE ( 'NONE', #147, #7, #222, .T. ) ;
#75 = LINE ( 'NONE', #158, #70 ) ;
#76 = VERTEX_POINT ( 'NONE', #54 ) ;
#77 = ADVANCED_FACE ( 'NONE', ( #157 ), #14, .F. ) ;
#78 = ORIENTED_EDGE ( 'NONE', *, *, #177, .F. ) ;
#79 = VECTOR ( 'NONE', #111, 1000.000000000000000 ) ;
#80 = CARTESIAN_POINT ( 'NONE',  ( 24.99999999999999600, 25.00000000000001100, 0.0000000000000000000 ) ) ;
#81 = ORIENTED_EDGE ( 'NONE', *, *, #142, .F. ) ;
#82 = APPROVAL ( #221, 'UNSPECIFIED' ) ;
#83 = DIRECTION ( 'NONE',  ( 0.0000000000000000000, 0.0000000000000000000, -1.000000000000000000 ) ) ;
#84 = DIRECTION ( 'NONE',  ( -1.000000000000000000, 0.0000000000000000000, -0.0000000000000000000 ) ) ;
#85 = ORIENTED_EDGE ( 'NONE', *, *, #2, .F. ) ;
#86 = EDGE_CURVE ( 'NONE', #185, #76, #75, .T. ) ;
#87 = CARTESIAN_POINT ( 'NONE',  ( 24.99999999999999600, 25.00000000000001100, 0.0000000000000000000 ) ) ;
#88 = LOCAL_TIME ( 15, 3, 13.00000000000000000, #205 ) ;
#89 = ORIENTED_EDGE ( 'NONE', *, *, #35, .F. ) ;
#90 = APPLICATION_CONTEXT ( 'configuration controlled 3d designs of mechanical parts and assemblies' ) ;
#91 = PERSON_AND_ORGANIZATION_ROLE ( 'design_owner' ) ;
#92 = SECURITY_CLASSIFICATION_LEVEL ( 'unclassified' ) ;
#93 = AXIS2_PLACEMENT_3D ( 'NONE', #67, #56, #190 ) ;
#94 = APPLICATION_CONTEXT ( 'configuration controlled 3d designs of mechanical parts and assemblies' ) ;
#95 = ORIENTED_EDGE ( 'NONE', *, *, #142, .T. ) ;
#96 = ORIENTED_EDGE ( 'NONE', *, *, #176, .T. ) ;
#97 = EDGE_CURVE ( 'NONE', #172, #185, #151, .T. ) ;
#98 = ADVANCED_FACE ( 'NONE', ( #136 ), #33, .T. ) ;
#99 = PRODUCT_RELATED_PRODUCT_CATEGORY ( 'detail', '', ( #123 ) ) ;
#100 = APPROVAL_PERSON_ORGANIZATION ( #107, #82, #220 ) ;
#101 = ORIENTED_EDGE ( 'NONE', *, *, #165, .T. ) ;
#102 = LOCAL_TIME ( 15, 3, 13.00000000000000000, #153 ) ;
#103 = CARTESIAN_POINT ( 'NONE',  ( -25.00000000000000000, 25.00000000000000400, 3.000000000000000000 ) ) ;
#104 = CARTESIAN_POINT ( 'NONE',  ( -24.99999999999999300, -25.00000000000000000, 3.000000000000000000 ) ) ;
#105 = DIRECTION ( 'NONE',  ( 2.081668171172168300E-016, -1.000000000000000000, 0.0000000000000000000 ) ) ;
#106 = CARTESIAN_POINT ( 'NONE',  ( -25.00000000000000000, 25.00000000000000400, 0.0000000000000000000 ) ) ;
#107 = PERSON_AND_ORGANIZATION ( #51, #150 ) ;
#108 = CALENDAR_DATE ( 2017, 31, 1 ) ;
#109 = DIRECTION ( 'NONE',  ( -2.081668171172168500E-016, 1.000000000000000000, -0.0000000000000000000 ) ) ;
#110 = EDGE_CURVE ( 'NONE', #145, #76, #68, .T. ) ;
#111 = DIRECTION ( 'NONE',  ( -2.081668171172168500E-016, 1.000000000000000000, -0.0000000000000000000 ) ) ;
#112 = CC_DESIGN_APPROVAL ( #82, ( #25 ) ) ;
#113 = CALENDAR_DATE ( 2017, 31, 1 ) ;
#114 = LINE ( 'NONE', #87, #79 ) ;
#115 = EDGE_LOOP ( 'NONE', ( #4, #81, #78, #30 ) ) ;
#116 = PERSON_AND_ORGANIZATION_ROLE ( 'classification_officer' ) ;
#117 = DATE_AND_TIME ( #156, #88 ) ;
#118 = LINE ( 'NONE', #103, #195 ) ;
#119 = FACE_OUTER_BOUND ( 'NONE', #115, .T. ) ;
#120 = ORIENTED_EDGE ( 'NONE', *, *, #97, .T. ) ;
#121 = DIRECTION ( 'NONE',  ( -1.000000000000000000, -1.387778780781445700E-016, 0.0000000000000000000 ) ) ;
#122 = DIRECTION ( 'NONE',  ( -1.000000000000000000, -1.387778780781445700E-016, 0.0000000000000000000 ) ) ;
#123 = PRODUCT ( 'Web Model 68429', 'Web Model 68429', '', ( #61 ) ) ;
#124 = CALENDAR_DATE ( 2017, 31, 1 ) ;
#125 = CARTESIAN_POINT ( 'NONE',  ( 25.00000000000000700, -24.99999999999999300, 3.000000000000000000 ) ) ;
#126 = DIRECTION ( 'NONE',  ( 1.387778780781445700E-016, -1.000000000000000000, 0.0000000000000000000 ) ) ;
#127 = ORIENTED_EDGE ( 'NONE', *, *, #86, .F. ) ;
#128 = CARTESIAN_POINT ( 'NONE',  ( -25.00000000000000000, 25.00000000000000400, 3.000000000000000000 ) ) ;
#129 = APPROVAL_STATUS ( 'not_yet_approved' ) ;
#130 = DIRECTION ( 'NONE',  ( 1.000000000000000000, 0.0000000000000000000, 0.0000000000000000000 ) ) ;
#131 = CLOSED_SHELL ( 'NONE', ( #180, #5, #26, #77, #167, #98 ) ) ;
#132 = DATE_TIME_ROLE ( 'classification_date' ) ;
#133 = LINE ( 'NONE', #216, #162 ) ;
#134 = ORIENTED_EDGE ( 'NONE', *, *, #177, .T. ) ;
#135 = PRODUCT_DEFINITION_SHAPE ( 'NONE', 'NONE',  #166 ) ;
#136 = FACE_OUTER_BOUND ( 'NONE', #204, .T. ) ;
#137 = CARTESIAN_POINT ( 'NONE',  ( 24.99999999999999600, 25.00000000000001100, 3.000000000000000000 ) ) ;
#138 = APPROVAL_DATE_TIME ( #146, #82 ) ;
#139 = PERSON_AND_ORGANIZATION ( #51, #150 ) ;
#140 = CARTESIAN_POINT ( 'NONE',  ( -24.99999999999999300, -25.00000000000000000, 3.000000000000000000 ) ) ;
#141 = LOCAL_TIME ( 15, 3, 13.00000000000000000, #192 ) ;
#142 = EDGE_CURVE ( 'NONE', #147, #175, #234, .T. ) ;
#143 = CARTESIAN_POINT ( 'NONE',  ( 25.00000000000000700, -24.99999999999999300, 3.000000000000000000 ) ) ;
#144 = VECTOR ( 'NONE', #42, 1000.000000000000000 ) ;
#145 = VERTEX_POINT ( 'NONE', #60 ) ;
#146 = DATE_AND_TIME ( #124, #102 ) ;
#147 = VERTEX_POINT ( 'NONE', #187 ) ;
#148 = CC_DESIGN_DATE_AND_TIME_ASSIGNMENT ( #62, #201, ( #166 ) ) ;
#149 = APPROVAL_ROLE ( '' ) ;
#150 = ORGANIZATION ( 'UNSPECIFIED', 'UNSPECIFIED', '' ) ;
#151 = LINE ( 'NONE', #104, #217 ) ;
#152 = CC_DESIGN_PERSON_AND_ORGANIZATION_ASSIGNMENT ( #50, #24, ( #166 ) ) ;
#153 = COORDINATED_UNIVERSAL_TIME_OFFSET ( 5, 0, .BEHIND. ) ;
#154 = VECTOR ( 'NONE', #122, 1000.000000000000000 ) ;
#155 = ORIENTED_EDGE ( 'NONE', *, *, #227, .F. ) ;
#156 = CALENDAR_DATE ( 2017, 31, 1 ) ;
#157 = FACE_OUTER_BOUND ( 'NONE', #198, .T. ) ;
#158 = CARTESIAN_POINT ( 'NONE',  ( 25.00000000000000700, -24.99999999999999300, 0.0000000000000000000 ) ) ;
#159 = LOCAL_TIME ( 15, 3, 13.00000000000000000, #37 ) ;
#160 = ORIENTED_EDGE ( 'NONE', *, *, #86, .T. ) ;
#161 = DIRECTION ( 'NONE',  ( 1.387778780781445700E-016, -1.000000000000000000, 0.0000000000000000000 ) ) ;
#162 = VECTOR ( 'NONE', #109, 1000.000000000000000 ) ;
#163 = CARTESIAN_POINT ( 'NONE',  ( -25.00000000000000000, 25.00000000000000400, 0.0000000000000000000 ) ) ;
#164 = CARTESIAN_POINT ( 'NONE',  ( 24.99999999999999600, 25.00000000000001100, 3.000000000000000000 ) ) ;
#165 = EDGE_CURVE ( 'NONE', #179, #185, #49, .T. ) ;
#166 = PRODUCT_DEFINITION ( 'UNKNOWN', '', #171, #183 ) ;
#167 = ADVANCED_FACE ( 'NONE', ( #10 ), #16, .F. ) ;
#168 = ORIENTED_EDGE ( 'NONE', *, *, #35, .T. ) ;
#169 = DIRECTION ( 'NONE',  ( -0.0000000000000000000, -0.0000000000000000000, -1.000000000000000000 ) ) ;
#170 = DIRECTION ( 'NONE',  ( -0.0000000000000000000, -0.0000000000000000000, -1.000000000000000000 ) ) ;
#171 = PRODUCT_DEFINITION_FORMATION_WITH_SPECIFIED_SOURCE ( 'ANY', '', #123, .NOT_KNOWN. ) ;
#172 = VERTEX_POINT ( 'NONE', #18 ) ;
#173 = CARTESIAN_POINT ( 'NONE',  ( -24.99999999999999300, -25.00000000000000000, 0.0000000000000000000 ) ) ;
#174 =( NAMED_UNIT ( * ) PLANE_ANGLE_UNIT ( ) SI_UNIT ( $, .RADIAN. ) );
#175 = VERTEX_POINT ( 'NONE', #58 ) ;
#176 = EDGE_CURVE ( 'NONE', #7, #179, #206, .T. ) ;
#177 = EDGE_CURVE ( 'NONE', #145, #147, #133, .T. ) ;
#178 = VECTOR ( 'NONE', #170, 1000.000000000000000 ) ;
#179 = VERTEX_POINT ( 'NONE', #163 ) ;
#180 = ADVANCED_FACE ( 'NONE', ( #228 ), #194, .F. ) ;
#181 = AXIS2_PLACEMENT_3D ( 'NONE', #137, #230, #105 ) ;
#182 = ADVANCED_BREP_SHAPE_REPRESENTATION ( 'Web Model 68429', ( #71, #8 ), #39 ) ;
#183 = DESIGN_CONTEXT ( 'detailed design', #94, 'design' ) ;
#184 = PERSON_AND_ORGANIZATION ( #51, #150 ) ;
#185 = VERTEX_POINT ( 'NONE', #173 ) ;
#186 = PERSON_AND_ORGANIZATION ( #51, #150 ) ;
#187 = CARTESIAN_POINT ( 'NONE',  ( 24.99999999999999600, 25.00000000000001100, 3.000000000000000000 ) ) ;
#188 = LINE ( 'NONE', #125, #64 ) ;
#189 = EDGE_LOOP ( 'NONE', ( #168, #229, #134, #13 ) ) ;
#190 = DIRECTION ( 'NONE',  ( 1.000000000000000000, 1.387778780781445400E-016, 0.0000000000000000000 ) ) ;
#191 = AXIS2_PLACEMENT_3D ( 'NONE', #140, #41, #40 ) ;
#192 = COORDINATED_UNIVERSAL_TIME_OFFSET ( 5, 0, .BEHIND. ) ;
#193 = APPROVAL_PERSON_ORGANIZATION ( #9, #213, #199 ) ;
#194 = PLANE ( 'NONE',  #63 ) ;
#195 = VECTOR ( 'NONE', #161, 1000.000000000000000 ) ;
#196 = DIRECTION ( 'NONE',  ( -0.0000000000000000000, -0.0000000000000000000, -1.000000000000000000 ) ) ;
#197 = VECTOR ( 'NONE', #121, 1000.000000000000000 ) ;
#198 = EDGE_LOOP ( 'NONE', ( #233, #38, #223, #95 ) ) ;
#199 = APPROVAL_ROLE ( '' ) ;
#200 = CALENDAR_DATE ( 2017, 31, 1 ) ;
#201 = DATE_TIME_ROLE ( 'creation_date' ) ;
#202 = PERSON_AND_ORGANIZATION_ROLE ( 'creator' ) ;
#203 = VECTOR ( 'NONE', #196, 1000.000000000000000 ) ;
#204 = EDGE_LOOP ( 'NONE', ( #225, #85, #155, #127 ) ) ;
#205 = COORDINATED_UNIVERSAL_TIME_OFFSET ( 5, 0, .BEHIND. ) ;
#206 = LINE ( 'NONE', #237, #203 ) ;
#207 = DIRECTION ( 'NONE',  ( 1.000000000000000000, 1.387778780781445700E-016, -0.0000000000000000000 ) ) ;
#208 = CARTESIAN_POINT ( 'NONE',  ( -24.99999999999999300, -25.00000000000000000, 0.0000000000000000000 ) ) ;
#209 = CARTESIAN_POINT ( 'NONE',  ( -25.00000000000000000, 25.00000000000000400, 3.000000000000000000 ) ) ;
#210 = PLANE ( 'NONE',  #181 ) ;
#211 = APPROVAL_DATE_TIME ( #117, #3 ) ;
#212 = LINE ( 'NONE', #80, #197 ) ;
#213 = APPROVAL ( #46, 'UNSPECIFIED' ) ;
#214 = DIRECTION ( 'NONE',  ( 1.000000000000000000, 1.387778780781445400E-016, -0.0000000000000000000 ) ) ;
#215 = SHAPE_DEFINITION_REPRESENTATION ( #135, #182 ) ;
#216 = CARTESIAN_POINT ( 'NONE',  ( 24.99999999999999600, 25.00000000000001100, 3.000000000000000000 ) ) ;
#217 = VECTOR ( 'NONE', #169, 1000.000000000000000 ) ;
#218 = PERSON_AND_ORGANIZATION_ROLE ( 'design_supplier' ) ;
#219 = APPROVAL_PERSON_ORGANIZATION ( #73, #3, #149 ) ;
#220 = APPROVAL_ROLE ( '' ) ;
#221 = APPROVAL_STATUS ( 'not_yet_approved' ) ;
#222 = LINE ( 'NONE', #232, #154 ) ;
#223 = ORIENTED_EDGE ( 'NONE', *, *, #74, .F. ) ;
#224 = COORDINATED_UNIVERSAL_TIME_OFFSET ( 5, 0, .BEHIND. ) ;
#225 = ORIENTED_EDGE ( 'NONE', *, *, #165, .F. ) ;
#226 = CC_DESIGN_APPROVAL ( #213, ( #171 ) ) ;
#227 = EDGE_CURVE ( 'NONE', #76, #175, #114, .T. ) ;
#228 = FACE_OUTER_BOUND ( 'NONE', #34, .T. ) ;
#229 = ORIENTED_EDGE ( 'NONE', *, *, #28, .T. ) ;
#230 = DIRECTION ( 'NONE',  ( -1.000000000000000000, -2.081668171172168300E-016, 0.0000000000000000000 ) ) ;
#231 = DIRECTION ( 'NONE',  ( -1.387778780781445400E-016, 1.000000000000000000, 0.0000000000000000000 ) ) ;
#232 = CARTESIAN_POINT ( 'NONE',  ( 24.99999999999999600, 25.00000000000001100, 3.000000000000000000 ) ) ;
#233 = ORIENTED_EDGE ( 'NONE', *, *, #2, .T. ) ;
#234 = LINE ( 'NONE', #164, #178 ) ;
#235 = DIRECTION ( 'NONE',  ( 0.0000000000000000000, 0.0000000000000000000, 1.000000000000000000 ) ) ;
#236 = CC_DESIGN_PERSON_AND_ORGANIZATION_ASSIGNMENT ( #139, #91, ( #123 ) ) ;
#237 = CARTESIAN_POINT ( 'NONE',  ( -25.00000000000000000, 25.00000000000000400, 3.000000000000000000 ) ) ;
ENDSEC;
END-ISO-10303-21;
