ISO-10303-21;
HEADER;
FILE_DESCRIPTION (( 'STEP AP203' ),
    '1' );
FILE_NAME ('Web Model 48917_48918.step',
    '2017-06-06T17:31:38',
    ( '' ),
    ( '' ),
    'SwSTEP 2.0',
    'SolidWorks 2016',
    '' );
FILE_SCHEMA (( 'CONFIG_CONTROL_DESIGN' ));
ENDSEC;

DATA;
#1 = MANIFOLD_SOLID_BREP ( 'Boss-Extrude1', #161 ) ;
#2 = CARTESIAN_POINT ( 'NONE',  ( 0.0000000000000000000, 0.0000000000000000000, 0.0000000000000000000 ) ) ;
#3 = ADVANCED_FACE ( 'NONE', ( #33 ), #99, .F. ) ;
#4 = PRODUCT_DEFINITION ( 'UNKNOWN', '', #21, #19 ) ;
#5 = PRODUCT ( 'Web Model 48917_48918', 'Web Model 48917_48918', '', ( #95 ) ) ;
#6 = APPROVAL_PERSON_ORGANIZATION ( #140, #153, #97 ) ;
#7 = EDGE_LOOP ( 'NONE', ( #137, #101 ) ) ;
#8 = EDGE_LOOP ( 'NONE', ( #50, #90, #28, #36 ) ) ;
#9 = LINE ( 'NONE', #52, #96 ) ;
#10 = DIRECTION ( 'NONE',  ( 1.000000000000000000, 0.0000000000000000000, -0.0000000000000000000 ) ) ;
#11 = CARTESIAN_POINT ( 'NONE',  ( 0.0000000000000000000, 35.35500000000000400, 4.119968255444916800E-015 ) ) ;
#12 = DIRECTION ( 'NONE',  ( 0.0000000000000000000, 0.0000000000000000000, 1.000000000000000000 ) ) ;
#13 = CARTESIAN_POINT ( 'NONE',  ( 50.00000000000000000, -35.35499999999999700, 4.228388472693466500E-015 ) ) ;
#14 = CARTESIAN_POINT ( 'NONE',  ( -3.061616997868383000E-015, -35.35499999999999000, 2.818925648462311500E-015 ) ) ;
#15 = LINE ( 'NONE', #105, #64 ) ;
#16 = ORIENTED_EDGE ( 'NONE', *, *, #133, .F. ) ;
#17 = PLANE ( 'NONE',  #175 ) ;
#18 =( NAMED_UNIT ( * ) SI_UNIT ( $, .STERADIAN. ) SOLID_ANGLE_UNIT ( ) );
#19 = DESIGN_CONTEXT ( 'detailed design', #60, 'design' ) ;
#20 = DIRECTION ( 'NONE',  ( 0.0000000000000000000, 0.0000000000000000000, 1.000000000000000000 ) ) ;
#21 = PRODUCT_DEFINITION_FORMATION_WITH_SPECIFIED_SOURCE ( 'ANY', '', #5, .NOT_KNOWN. ) ;
#22 = CARTESIAN_POINT ( 'NONE',  ( -50.00000000000000000, -35.35499999999998300, 2.764715539838035900E-015 ) ) ;
#23 = CARTESIAN_POINT ( 'NONE',  ( 0.0000000000000000000, 1.000000000000004200, 0.9999999999999963400 ) ) ;
#24 = CC_DESIGN_APPROVAL ( #153, ( #37 ) ) ;
#25 = PERSON_AND_ORGANIZATION ( #62, #55 ) ;
#26 = CARTESIAN_POINT ( 'NONE',  ( 0.0000000000000000000, 36.35499999999999700, 0.9999999999999963400 ) ) ;
#27 = CARTESIAN_POINT ( 'NONE',  ( 0.0000000000000000000, 35.35500000000000400, 2.818925648462311500E-015 ) ) ;
#28 = ORIENTED_EDGE ( 'NONE', *, *, #133, .T. ) ;
#29 = SHAPE_DEFINITION_REPRESENTATION ( #34, #84 ) ;
#30 = VERTEX_POINT ( 'NONE', #152 ) ;
#31 = ORIENTED_EDGE ( 'NONE', *, *, #174, .T. ) ;
#32 = APPLICATION_PROTOCOL_DEFINITION ( 'international standard', 'config_control_design', 1994, #60 ) ;
#33 = FACE_OUTER_BOUND ( 'NONE', #8, .T. ) ;
#34 = PRODUCT_DEFINITION_SHAPE ( 'NONE', 'NONE',  #4 ) ;
#35 = APPROVAL_STATUS ( 'not_yet_approved' ) ;
#36 = ORIENTED_EDGE ( 'NONE', *, *, #120, .T. ) ;
#37 = SECURITY_CLASSIFICATION ( '', '', #65 ) ;
#38 = CARTESIAN_POINT ( 'NONE',  ( 50.00000000000000000, 35.35499999999999700, 0.0000000000000000000 ) ) ;
#39 = VERTEX_POINT ( 'NONE', #26 ) ;
#40 = LOCAL_TIME ( 13, 31, 38.00000000000000000, #57 ) ;
#41 = EDGE_LOOP ( 'NONE', ( #116, #48 ) ) ;
#42 = CALENDAR_DATE ( 2017, 6, 6 ) ;
#43 = CC_DESIGN_PERSON_AND_ORGANIZATION_ASSIGNMENT ( #46, #159, ( #37 ) ) ;
#44 = DATE_TIME_ROLE ( 'classification_date' ) ;
#45 = EDGE_LOOP ( 'NONE', ( #129, #31, #155, #16 ) ) ;
#46 = PERSON_AND_ORGANIZATION ( #62, #55 ) ;
#47 = AXIS2_PLACEMENT_3D ( 'NONE', #66, #20, #108 ) ;
#48 = ORIENTED_EDGE ( 'NONE', *, *, #178, .T. ) ;
#49 = CARTESIAN_POINT ( 'NONE',  ( -3.061616997868383000E-015, -34.35499999999999700, 0.9999999999999963400 ) ) ;
#50 = ORIENTED_EDGE ( 'NONE', *, *, #174, .F. ) ;
#51 = CARTESIAN_POINT ( 'NONE',  ( -50.00000000000000000, 35.35499999999999700, 2.764715539838035900E-015 ) ) ;
#52 = CARTESIAN_POINT ( 'NONE',  ( 0.0000000000000000000, 36.35499999999999700, 0.9999999999999963400 ) ) ;
#53 = PLANE ( 'NONE',  #86 ) ;
#54 = CC_DESIGN_APPROVAL ( #170, ( #21 ) ) ;
#55 = ORGANIZATION ( 'UNSPECIFIED', 'UNSPECIFIED', '' ) ;
#56 = ADVANCED_FACE ( 'NONE', ( #123 ), #17, .F. ) ;
#57 = COORDINATED_UNIVERSAL_TIME_OFFSET ( 5, 0, .BEHIND. ) ;
#58 = APPROVAL_DATE_TIME ( #107, #170 ) ;
#59 = APPROVAL_STATUS ( 'not_yet_approved' ) ;
#60 = APPLICATION_CONTEXT ( 'configuration controlled 3d designs of mechanical parts and assemblies' ) ;
#61 =( BOUNDED_CURVE ( )  B_SPLINE_CURVE ( 3, ( #147, #70, #38, #182 ),
 .UNSPECIFIED., .F., .F. ) 
 B_SPLINE_CURVE_WITH_KNOTS ( ( 4, 4 ),
 ( 3.141592653589793100, 6.283185307179586200 ),
 .UNSPECIFIED. ) 
 CURVE ( )  GEOMETRIC_REPRESENTATION_ITEM ( )  RATIONAL_B_SPLINE_CURVE ( ( 1.000000000000000000, 0.3333333333333333700, 0.3333333333333333700, 1.000000000000000000 ) ) 
 REPRESENTATION_ITEM ( '' )  );
#62 = PERSON ( 'UNSPECIFIED', 'UNSPECIFIED', 'UNSPECIFIED', ('UNSPECIFIED'), ('UNSPECIFIED'), ('UNSPECIFIED') ) ;
#63 = APPROVAL_ROLE ( '' ) ;
#64 = VECTOR ( 'NONE', #171, 1000.000000000000100 ) ;
#65 = SECURITY_CLASSIFICATION_LEVEL ( 'unclassified' ) ;
#66 = CARTESIAN_POINT ( 'NONE',  ( 0.0000000000000000000, 0.0000000000000000000, 0.0000000000000000000 ) ) ;
#67 = FACE_OUTER_BOUND ( 'NONE', #41, .T. ) ;
#68 = CC_DESIGN_PERSON_AND_ORGANIZATION_ASSIGNMENT ( #150, #143, ( #5 ) ) ;
#69 = DIRECTION ( 'NONE',  ( -0.0000000000000000000, -0.7071067811865503500, -0.7071067811865446900 ) ) ;
#70 = CARTESIAN_POINT ( 'NONE',  ( 50.00000000000000000, -35.35499999999999700, 0.0000000000000000000 ) ) ;
#71 = CARTESIAN_POINT ( 'NONE',  ( -50.00000000000000000, 36.35499999999999000, 0.9999999999999963400 ) ) ;
#72 = DATE_AND_TIME ( #126, #162 ) ;
#73 = CARTESIAN_POINT ( 'NONE',  ( 50.00000000000000000, 35.35499999999999700, 4.228388472693466500E-015 ) ) ;
#74 = CARTESIAN_POINT ( 'NONE',  ( -50.00000000000000000, 36.35500000000001100, 0.9999999999999968900 ) ) ;
#75 = CARTESIAN_POINT ( 'NONE',  ( 0.0000000000000000000, 36.35500000000000400, 0.9999999999999991100 ) ) ;
#76 = COORDINATED_UNIVERSAL_TIME_OFFSET ( 5, 0, .BEHIND. ) ;
#77 = CARTESIAN_POINT ( 'NONE',  ( -3.061616997868383000E-015, -35.35499999999999000, 4.119968255444916800E-015 ) ) ;
#78 = CARTESIAN_POINT ( 'NONE',  ( -3.061616997868383000E-015, -35.35499999999999700, 0.0000000000000000000 ) ) ;
#79 =( BOUNDED_CURVE ( )  B_SPLINE_CURVE ( 3, ( #103, #172, #183, #78 ),
 .UNSPECIFIED., .F., .F. ) 
 B_SPLINE_CURVE_WITH_KNOTS ( ( 4, 4 ),
 ( 0.0000000000000000000, 3.141592653589793100 ),
 .UNSPECIFIED. ) 
 CURVE ( )  GEOMETRIC_REPRESENTATION_ITEM ( )  RATIONAL_B_SPLINE_CURVE ( ( 1.000000000000000000, 0.3333333333333333700, 0.3333333333333333700, 1.000000000000000000 ) ) 
 REPRESENTATION_ITEM ( '' )  );
#80 = CC_DESIGN_PERSON_AND_ORGANIZATION_ASSIGNMENT ( #160, #167, ( #21 ) ) ;
#81 =( LENGTH_UNIT ( ) NAMED_UNIT ( * ) SI_UNIT ( .MILLI., .METRE. ) );
#82 = CALENDAR_DATE ( 2017, 6, 6 ) ;
#83 = PERSON_AND_ORGANIZATION_ROLE ( 'creator' ) ;
#84 = ADVANCED_BREP_SHAPE_REPRESENTATION ( 'Web Model 48917_48918', ( #1, #47 ), #110 ) ;
#85 = CALENDAR_DATE ( 2017, 6, 6 ) ;
#86 = AXIS2_PLACEMENT_3D ( 'NONE', #23, #148, #10 ) ;
#87 = CC_DESIGN_DATE_AND_TIME_ASSIGNMENT ( #72, #145, ( #4 ) ) ;
#88 = APPROVAL_DATE_TIME ( #89, #153 ) ;
#89 = DATE_AND_TIME ( #85, #136 ) ;
#90 = ORIENTED_EDGE ( 'NONE', *, *, #93, .F. ) ;
#91 = VERTEX_POINT ( 'NONE', #49 ) ;
#92 = CC_DESIGN_SECURITY_CLASSIFICATION ( #37, ( #21 ) ) ;
#93 = EDGE_CURVE ( 'NONE', #39, #91, #131, .T. ) ;
#94 = APPROVAL ( #125, 'UNSPECIFIED' ) ;
#95 = MECHANICAL_CONTEXT ( 'NONE', #156, 'mechanical' ) ;
#96 = VECTOR ( 'NONE', #69, 1000.000000000000100 ) ;
#97 = APPROVAL_ROLE ( '' ) ;
#98 = DIRECTION ( 'NONE',  ( 1.000000000000000000, 0.0000000000000000000, -0.0000000000000000000 ) ) ;
#99 =( BOUNDED_SURFACE ( )  B_SPLINE_SURFACE ( 3, 1, ( 
 ( #127, #27 ),
 ( #74, #51 ),
 ( #114, #22 ),
 ( #132, #14 ) ),
 .UNSPECIFIED., .F., .F., .T. ) 
 B_SPLINE_SURFACE_WITH_KNOTS ( ( 4, 4 ),
 ( 2, 2 ),
 ( 0.0000000000000000000, 1.000000000000000000 ),
 ( 0.0000000000000000000, 1.000000000000000000 ),
 .UNSPECIFIED. ) 
 GEOMETRIC_REPRESENTATION_ITEM ( )  RATIONAL_B_SPLINE_SURFACE ( (
 ( 1.000000000000000000, 1.000000000000000000),
 ( 0.3333333333333333700, 0.3333333333333333700),
 ( 0.3333333333333333700, 0.3333333333333333700),
 ( 1.000000000000000000, 1.000000000000000000) ) ) 
 REPRESENTATION_ITEM ( '' )  SURFACE ( )  );
#100 = CARTESIAN_POINT ( 'NONE',  ( -3.061616997868383000E-015, -34.35499999999999700, 0.9999999999999963400 ) ) ;
#101 = ORIENTED_EDGE ( 'NONE', *, *, #169, .F. ) ;
#102 = CC_DESIGN_PERSON_AND_ORGANIZATION_ASSIGNMENT ( #157, #83, ( #4 ) ) ;
#103 = CARTESIAN_POINT ( 'NONE',  ( 0.0000000000000000000, 35.35499999999999700, 0.0000000000000000000 ) ) ;
#104 = COORDINATED_UNIVERSAL_TIME_OFFSET ( 5, 0, .BEHIND. ) ;
#105 = CARTESIAN_POINT ( 'NONE',  ( -3.061616997868383000E-015, -34.35499999999999700, 0.9999999999999963400 ) ) ;
#106 = CARTESIAN_POINT ( 'NONE',  ( 50.00000000000000000, -34.35499999999999700, 0.9999999999999992200 ) ) ;
#107 = DATE_AND_TIME ( #82, #180 ) ;
#108 = DIRECTION ( 'NONE',  ( 1.000000000000000000, 0.0000000000000000000, 0.0000000000000000000 ) ) ;
#109 = COORDINATED_UNIVERSAL_TIME_OFFSET ( 5, 0, .BEHIND. ) ;
#110 =( GEOMETRIC_REPRESENTATION_CONTEXT ( 3 ) GLOBAL_UNCERTAINTY_ASSIGNED_CONTEXT ( ( #177 ) ) GLOBAL_UNIT_ASSIGNED_CONTEXT ( ( #81, #139, #18 ) ) REPRESENTATION_CONTEXT ( 'NONE', 'WORKASPACE' ) );
#111 = CC_DESIGN_APPROVAL ( #94, ( #4 ) ) ;
#112 = CALENDAR_DATE ( 2017, 6, 6 ) ;
#113 = PERSON_AND_ORGANIZATION ( #62, #55 ) ;
#114 = CARTESIAN_POINT ( 'NONE',  ( -50.00000000000000000, -34.35499999999998300, 0.9999999999999968900 ) ) ;
#115 = CARTESIAN_POINT ( 'NONE',  ( 0.0000000000000000000, 36.35499999999999700, 0.9999999999999963400 ) ) ;
#116 = ORIENTED_EDGE ( 'NONE', *, *, #93, .T. ) ;
#117 = CARTESIAN_POINT ( 'NONE',  ( 50.00000000000000000, 36.35500000000001100, 0.9999999999999992200 ) ) ;
#118 = ADVANCED_FACE ( 'NONE', ( #67 ), #53, .T. ) ;
#119 = APPROVAL_DATE_TIME ( #142, #94 ) ;
#120 = EDGE_CURVE ( 'NONE', #164, #30, #79, .T. ) ;
#121 = CC_DESIGN_DATE_AND_TIME_ASSIGNMENT ( #163, #44, ( #37 ) ) ;
#122 = PERSON_AND_ORGANIZATION_ROLE ( 'design_supplier' ) ;
#123 = FACE_OUTER_BOUND ( 'NONE', #7, .T. ) ;
#124 = APPLICATION_PROTOCOL_DEFINITION ( 'international standard', 'config_control_design', 1994, #156 ) ;
#125 = APPROVAL_STATUS ( 'not_yet_approved' ) ;
#126 = CALENDAR_DATE ( 2017, 6, 6 ) ;
#127 = CARTESIAN_POINT ( 'NONE',  ( 0.0000000000000000000, 36.35500000000000400, 0.9999999999999967800 ) ) ;
#128 = PRODUCT_RELATED_PRODUCT_CATEGORY ( 'detail', '', ( #5 ) ) ;
#129 = ORIENTED_EDGE ( 'NONE', *, *, #178, .F. ) ;
#130 = CARTESIAN_POINT ( 'NONE',  ( -50.00000000000000000, -34.35499999999999000, 0.9999999999999963400 ) ) ;
#131 =( BOUNDED_CURVE ( )  B_SPLINE_CURVE ( 3, ( #115, #71, #130, #165 ),
 .UNSPECIFIED., .F., .F. ) 
 B_SPLINE_CURVE_WITH_KNOTS ( ( 4, 4 ),
 ( 0.0000000000000000000, 3.141592653589793100 ),
 .UNSPECIFIED. ) 
 CURVE ( )  GEOMETRIC_REPRESENTATION_ITEM ( )  RATIONAL_B_SPLINE_CURVE ( ( 1.000000000000000000, 0.3333333333333333700, 0.3333333333333333700, 1.000000000000000000 ) ) 
 REPRESENTATION_ITEM ( '' )  );
#132 = CARTESIAN_POINT ( 'NONE',  ( -3.061616997868383000E-015, -34.35499999999999000, 0.9999999999999967800 ) ) ;
#133 = EDGE_CURVE ( 'NONE', #39, #164, #9, .T. ) ;
#134 = CARTESIAN_POINT ( 'NONE',  ( 0.0000000000000000000, 35.35499999999999700, 0.0000000000000000000 ) ) ;
#135 = CARTESIAN_POINT ( 'NONE',  ( 50.00000000000000000, -34.35500000000000400, 0.9999999999999963400 ) ) ;
#136 = LOCAL_TIME ( 13, 31, 38.00000000000000000, #76 ) ;
#137 = ORIENTED_EDGE ( 'NONE', *, *, #120, .F. ) ;
#138 = ADVANCED_FACE ( 'NONE', ( #144 ), #168, .F. ) ;
#139 =( NAMED_UNIT ( * ) PLANE_ANGLE_UNIT ( ) SI_UNIT ( $, .RADIAN. ) );
#140 = PERSON_AND_ORGANIZATION ( #62, #55 ) ;
#141 = CARTESIAN_POINT ( 'NONE',  ( 50.00000000000000000, 36.35499999999999000, 0.9999999999999963400 ) ) ;
#142 = DATE_AND_TIME ( #42, #179 ) ;
#143 = PERSON_AND_ORGANIZATION_ROLE ( 'design_owner' ) ;
#144 = FACE_OUTER_BOUND ( 'NONE', #45, .T. ) ;
#145 = DATE_TIME_ROLE ( 'creation_date' ) ;
#146 = COORDINATED_UNIVERSAL_TIME_OFFSET ( 5, 0, .BEHIND. ) ;
#147 = CARTESIAN_POINT ( 'NONE',  ( -3.061616997868383000E-015, -35.35499999999999700, 0.0000000000000000000 ) ) ;
#148 = DIRECTION ( 'NONE',  ( 0.0000000000000000000, 0.0000000000000000000, 1.000000000000000000 ) ) ;
#149 =( BOUNDED_CURVE ( )  B_SPLINE_CURVE ( 3, ( #100, #135, #141, #154 ),
 .UNSPECIFIED., .F., .F. ) 
 B_SPLINE_CURVE_WITH_KNOTS ( ( 4, 4 ),
 ( 3.141592653589793100, 6.283185307179586200 ),
 .UNSPECIFIED. ) 
 CURVE ( )  GEOMETRIC_REPRESENTATION_ITEM ( )  RATIONAL_B_SPLINE_CURVE ( ( 1.000000000000000000, 0.3333333333333333700, 0.3333333333333333700, 1.000000000000000000 ) ) 
 REPRESENTATION_ITEM ( '' )  );
#150 = PERSON_AND_ORGANIZATION ( #62, #55 ) ;
#151 = PERSON_AND_ORGANIZATION ( #62, #55 ) ;
#152 = CARTESIAN_POINT ( 'NONE',  ( -3.061616997868383000E-015, -35.35499999999999700, 0.0000000000000000000 ) ) ;
#153 = APPROVAL ( #35, 'UNSPECIFIED' ) ;
#154 = CARTESIAN_POINT ( 'NONE',  ( 0.0000000000000000000, 36.35499999999999700, 0.9999999999999963400 ) ) ;
#155 = ORIENTED_EDGE ( 'NONE', *, *, #169, .T. ) ;
#156 = APPLICATION_CONTEXT ( 'configuration controlled 3d designs of mechanical parts and assemblies' ) ;
#157 = PERSON_AND_ORGANIZATION ( #62, #55 ) ;
#158 = APPROVAL_PERSON_ORGANIZATION ( #113, #170, #166 ) ;
#159 = PERSON_AND_ORGANIZATION_ROLE ( 'classification_officer' ) ;
#160 = PERSON_AND_ORGANIZATION ( #62, #55 ) ;
#161 = CLOSED_SHELL ( 'NONE', ( #138, #3, #118, #56 ) ) ;
#162 = LOCAL_TIME ( 13, 31, 38.00000000000000000, #109 ) ;
#163 = DATE_AND_TIME ( #112, #40 ) ;
#164 = VERTEX_POINT ( 'NONE', #134 ) ;
#165 = CARTESIAN_POINT ( 'NONE',  ( -3.061616997868383000E-015, -34.35499999999999700, 0.9999999999999963400 ) ) ;
#166 = APPROVAL_ROLE ( '' ) ;
#167 = PERSON_AND_ORGANIZATION_ROLE ( 'creator' ) ;
#168 =( BOUNDED_SURFACE ( )  B_SPLINE_SURFACE ( 3, 1, ( 
 ( #181, #77 ),
 ( #106, #13 ),
 ( #117, #73 ),
 ( #75, #11 ) ),
 .UNSPECIFIED., .F., .F., .F. ) 
 B_SPLINE_SURFACE_WITH_KNOTS ( ( 4, 4 ),
 ( 2, 2 ),
 ( 0.0000000000000000000, 1.000000000000000000 ),
 ( 0.0000000000000000000, 1.000000000000000000 ),
 .UNSPECIFIED. ) 
 GEOMETRIC_REPRESENTATION_ITEM ( )  RATIONAL_B_SPLINE_SURFACE ( (
 ( 1.000000000000000000, 1.000000000000000000),
 ( 0.3333333333333333700, 0.3333333333333333700),
 ( 0.3333333333333333700, 0.3333333333333333700),
 ( 1.000000000000000000, 1.000000000000000000) ) ) 
 REPRESENTATION_ITEM ( '' )  SURFACE ( )  );
#169 = EDGE_CURVE ( 'NONE', #30, #164, #61, .T. ) ;
#170 = APPROVAL ( #59, 'UNSPECIFIED' ) ;
#171 = DIRECTION ( 'NONE',  ( -0.0000000000000000000, -0.7071067811865503500, -0.7071067811865446900 ) ) ;
#172 = CARTESIAN_POINT ( 'NONE',  ( -50.00000000000000000, 35.35499999999999700, 0.0000000000000000000 ) ) ;
#173 = APPROVAL_PERSON_ORGANIZATION ( #25, #94, #63 ) ;
#174 = EDGE_CURVE ( 'NONE', #91, #30, #15, .T. ) ;
#175 = AXIS2_PLACEMENT_3D ( 'NONE', #2, #12, #98 ) ;
#176 = CC_DESIGN_PERSON_AND_ORGANIZATION_ASSIGNMENT ( #151, #122, ( #21 ) ) ;
#177 = UNCERTAINTY_MEASURE_WITH_UNIT (LENGTH_MEASURE( 1.000000000000000100E-005 ), #81, 'distance_accuracy_value', 'NONE');
#178 = EDGE_CURVE ( 'NONE', #91, #39, #149, .T. ) ;
#179 = LOCAL_TIME ( 13, 31, 38.00000000000000000, #104 ) ;
#180 = LOCAL_TIME ( 13, 31, 38.00000000000000000, #146 ) ;
#181 = CARTESIAN_POINT ( 'NONE',  ( -3.061616997868383000E-015, -34.35499999999999000, 0.9999999999999991100 ) ) ;
#182 = CARTESIAN_POINT ( 'NONE',  ( 0.0000000000000000000, 35.35499999999999700, 0.0000000000000000000 ) ) ;
#183 = CARTESIAN_POINT ( 'NONE',  ( -50.00000000000000000, -35.35499999999999000, 0.0000000000000000000 ) ) ;
ENDSEC;
END-ISO-10303-21;
