ISO-10303-21;
HEADER;
FILE_DESCRIPTION (( 'STEP AP203' ),
    '1' );
FILE_NAME ('20103-E0W.STEP',
    '2015-07-10T15:26:18',
    ( 'Admin' ),
    ( '' ),
    'SwSTEP 2.0',
    'SolidWorks 2014',
    '' );
FILE_SCHEMA (( 'CONFIG_CONTROL_DESIGN' ));
ENDSEC;

DATA;
#1 = CALENDAR_DATE ( 2015, 10, 7 ) ;
#2 = CARTESIAN_POINT ( 'NONE',  ( 0.0000000000000000000, 8.370184428375951200E-016, -2.285000000000001000 ) ) ;
#3 = DATE_AND_TIME ( #82, #227 ) ;
#4 = AXIS2_PLACEMENT_3D ( 'NONE', #209, #9, #67 ) ;
#5 = ADVANCED_FACE ( 'NONE', ( #210 ), #237, .T. ) ;
#6 = EDGE_CURVE ( 'NONE', #32, #178, #171, .T. ) ;
#7 = CIRCLE ( 'NONE', #4, 6.349999999999999600 ) ;
#8 = CC_DESIGN_APPROVAL ( #112, ( #200 ) ) ;
#9 = DIRECTION ( 'NONE',  ( -0.0000000000000000000, 3.061515884555943100E-016, -1.000000000000000000 ) ) ;
#10 = VERTEX_POINT ( 'NONE', #160 ) ;
#11 = FACE_OUTER_BOUND ( 'NONE', #159, .T. ) ;
#12 = PERSON_AND_ORGANIZATION_ROLE ( 'creator' ) ;
#13 = COORDINATED_UNIVERSAL_TIME_OFFSET ( 5, 0, .BEHIND. ) ;
#14 = ORIENTED_EDGE ( 'NONE', *, *, #94, .F. ) ;
#15 = ORIENTED_EDGE ( 'NONE', *, *, #219, .T. ) ;
#16 = DIRECTION ( 'NONE',  ( 0.0000000000000000000, -1.000000000000000000, -2.794075062123208900E-016 ) ) ;
#17 = AXIS2_PLACEMENT_3D ( 'NONE', #152, #34, #142 ) ;
#18 = CARTESIAN_POINT ( 'NONE',  ( 0.0000000000000000000, 8.370184428375948200E-016, -2.285000000000000100 ) ) ;
#19 = PERSON ( 'UNSPECIFIED', 'UNSPECIFIED', 'UNSPECIFIED', ('UNSPECIFIED'), ('UNSPECIFIED'), ('UNSPECIFIED') ) ;
#20 = DIRECTION ( 'NONE',  ( 0.0000000000000000000, 1.000000000000000000, 2.794075062123208900E-016 ) ) ;
#21 = CALENDAR_DATE ( 2015, 10, 7 ) ;
#22 = CARTESIAN_POINT ( 'NONE',  ( 0.0000000000000000000, 2.242172016629203000E-016, -0.2833731449312466600 ) ) ;
#23 = ORIENTED_EDGE ( 'NONE', *, *, #6, .F. ) ;
#24 = VECTOR ( 'NONE', #84, 1000.000000000000000 ) ;
#25 = ADVANCED_FACE ( 'NONE', ( #42 ), #174, .T. ) ;
#26 = CARTESIAN_POINT ( 'NONE',  ( 0.0000000000000000000, -6.208578643762690400, -2.285000000000003700 ) ) ;
#27 = LOCAL_TIME ( 11, 26, 18.00000000000000000, #246 ) ;
#28 = EDGE_CURVE ( 'NONE', #248, #178, #132, .T. ) ;
#29 = DIRECTION ( 'NONE',  ( -0.0000000000000000000, 3.061515884555943100E-016, -1.000000000000000000 ) ) ;
#30 = EDGE_LOOP ( 'NONE', ( #205, #44, #150, #23 ) ) ;
#31 = PRODUCT_DEFINITION_FORMATION_WITH_SPECIFIED_SOURCE ( 'ANY', '', #83, .NOT_KNOWN. ) ;
#32 = VERTEX_POINT ( 'NONE', #26 ) ;
#33 = CARTESIAN_POINT ( 'NONE',  ( 0.0000000000000000000, 8.370184428375954200E-016, -2.285000000000001900 ) ) ;
#34 = DIRECTION ( 'NONE',  ( 1.000000000000000000, 1.224646799147353200E-016, 3.749275628560213600E-032 ) ) ;
#35 = FACE_OUTER_BOUND ( 'NONE', #30, .T. ) ;
#36 = AXIS2_PLACEMENT_3D ( 'NONE', #162, #130, #134 ) ;
#37 = APPROVAL ( #247, 'UNSPECIFIED' ) ;
#38 = APPROVAL_ROLE ( '' ) ;
#39 = APPROVAL_PERSON_ORGANIZATION ( #106, #91, #38 ) ;
#40 = DIRECTION ( 'NONE',  ( 0.0000000000000000000, 1.000000000000000000, 3.061515884555943100E-016 ) ) ;
#41 = VECTOR ( 'NONE', #208, 1000.000000000000000 ) ;
#42 = FACE_OUTER_BOUND ( 'NONE', #181, .T. ) ;
#43 = ORIENTED_EDGE ( 'NONE', *, *, #73, .T. ) ;
#44 = ORIENTED_EDGE ( 'NONE', *, *, #74, .T. ) ;
#45 = DATE_TIME_ROLE ( 'creation_date' ) ;
#46 = PERSON_AND_ORGANIZATION ( #19, #233 ) ;
#47 = COORDINATED_UNIVERSAL_TIME_OFFSET ( 5, 0, .BEHIND. ) ;
#48 = ORIENTED_EDGE ( 'NONE', *, *, #6, .T. ) ;
#49 = APPROVAL_DATE_TIME ( #145, #37 ) ;
#50 = AXIS2_PLACEMENT_3D ( 'NONE', #22, #98, #76 ) ;
#51 = CIRCLE ( 'NONE', #50, 6.349999999999998800 ) ;
#52 = ORIENTED_EDGE ( 'NONE', *, *, #28, .T. ) ;
#53 = DIRECTION ( 'NONE',  ( -1.000000000000000000, 0.0000000000000000000, 0.0000000000000000000 ) ) ;
#54 = VECTOR ( 'NONE', #163, 1000.000000000000000 ) ;
#55 = ADVANCED_FACE ( 'NONE', ( #11 ), #197, .T. ) ;
#56 = SHAPE_DEFINITION_REPRESENTATION ( #141, #123 ) ;
#57 = CALENDAR_DATE ( 2015, 10, 7 ) ;
#58 = APPROVAL_STATUS ( 'not_yet_approved' ) ;
#59 = AXIS2_PLACEMENT_3D ( 'NONE', #241, #121, #16 ) ;
#60 = APPROVAL_ROLE ( '' ) ;
#61 = DESIGN_CONTEXT ( 'detailed design', #116, 'design' ) ;
#62 = PRODUCT_RELATED_PRODUCT_CATEGORY ( 'detail', '', ( #83 ) ) ;
#63 = SECURITY_CLASSIFICATION_LEVEL ( 'unclassified' ) ;
#64 = CC_DESIGN_APPROVAL ( #91, ( #31 ) ) ;
#65 = AXIS2_PLACEMENT_3D ( 'NONE', #215, #238, #129 ) ;
#66 = ORIENTED_EDGE ( 'NONE', *, *, #74, .F. ) ;
#67 = DIRECTION ( 'NONE',  ( 0.0000000000000000000, 1.000000000000000000, 2.731847993664263200E-016 ) ) ;
#68 = SECURITY_CLASSIFICATION ( '', '', #63 ) ;
#69 = ADVANCED_FACE ( 'NONE', ( #232 ), #154, .T. ) ;
#70 = AXIS2_PLACEMENT_3D ( 'NONE', #113, #53, #223 ) ;
#71 = AXIS2_PLACEMENT_3D ( 'NONE', #175, #167, #165 ) ;
#72 = CIRCLE ( 'NONE', #70, 9.134000000000000300 ) ;
#73 = EDGE_CURVE ( 'NONE', #149, #32, #96, .T. ) ;
#74 = EDGE_CURVE ( 'NONE', #149, #182, #114, .T. ) ;
#75 = COORDINATED_UNIVERSAL_TIME_OFFSET ( 5, 0, .BEHIND. ) ;
#76 = DIRECTION ( 'NONE',  ( 0.0000000000000000000, 1.000000000000000000, 3.073328992872296900E-016 ) ) ;
#77 =( NAMED_UNIT ( * ) PLANE_ANGLE_UNIT ( ) SI_UNIT ( $, .RADIAN. ) );
#78 = FACE_OUTER_BOUND ( 'NONE', #222, .T. ) ;
#79 =( GEOMETRIC_REPRESENTATION_CONTEXT ( 3 ) GLOBAL_UNCERTAINTY_ASSIGNED_CONTEXT ( ( #213 ) ) GLOBAL_UNIT_ASSIGNED_CONTEXT ( ( #81, #77, #136 ) ) REPRESENTATION_CONTEXT ( 'NONE', 'WORKASPACE' ) );
#80 = CC_DESIGN_DATE_AND_TIME_ASSIGNMENT ( #3, #231, ( #68 ) ) ;
#81 =( LENGTH_UNIT ( ) NAMED_UNIT ( * ) SI_UNIT ( .MILLI., .METRE. ) );
#82 = CALENDAR_DATE ( 2015, 10, 7 ) ;
#83 = PRODUCT ( '20103-E0W', '20103-E0W', '', ( #119 ) ) ;
#84 = DIRECTION ( 'NONE',  ( 8.659560562354839200E-017, 0.7071067811865396900, 0.7071067811865553400 ) ) ;
#85 = AXIS2_PLACEMENT_3D ( 'NONE', #133, #138, #207 ) ;
#86 = EDGE_LOOP ( 'NONE', ( #66, #14, #48, #15 ) ) ;
#87 = CARTESIAN_POINT ( 'NONE',  ( 7.776507174585690200E-016, -6.349999999999999600, -0.2833731449312484900 ) ) ;
#88 = MANIFOLD_SOLID_BREP ( '20103-001-1-solid1', #196 ) ;
#89 = APPROVAL_PERSON_ORGANIZATION ( #185, #37, #60 ) ;
#90 = CARTESIAN_POINT ( 'NONE',  ( 0.0000000000000000000, 6.350000000000000500, -2.284999999999998400 ) ) ;
#91 = APPROVAL ( #58, 'UNSPECIFIED' ) ;
#92 = AXIS2_PLACEMENT_3D ( 'NONE', #229, #249, #228 ) ;
#93 = CIRCLE ( 'NONE', #117, 6.349999999999999600 ) ;
#94 = EDGE_CURVE ( 'NONE', #32, #149, #148, .T. ) ;
#95 = PERSON_AND_ORGANIZATION_ROLE ( 'classification_officer' ) ;
#96 = CIRCLE ( 'NONE', #235, 6.208578643762691300 ) ;
#97 = DIRECTION ( 'NONE',  ( 0.0000000000000000000, 1.000000000000000000, 2.731847993664263200E-016 ) ) ;
#98 = DIRECTION ( 'NONE',  ( -0.0000000000000000000, 3.061515884555943100E-016, -1.000000000000000000 ) ) ;
#99 = COORDINATED_UNIVERSAL_TIME_OFFSET ( 5, 0, .BEHIND. ) ;
#100 = DIRECTION ( 'NONE',  ( -0.0000000000000000000, 3.061515884555943100E-016, -1.000000000000000000 ) ) ;
#101 = SPHERICAL_SURFACE ( 'NONE', #85, 9.134000000000000300 ) ;
#102 = ORIENTED_EDGE ( 'NONE', *, *, #199, .F. ) ;
#103 = CC_DESIGN_PERSON_AND_ORGANIZATION_ASSIGNMENT ( #176, #95, ( #68 ) ) ;
#104 = CALENDAR_DATE ( 2015, 10, 7 ) ;
#105 = CYLINDRICAL_SURFACE ( 'NONE', #120, 6.349999999999999600 ) ;
#106 = PERSON_AND_ORGANIZATION ( #19, #233 ) ;
#107 = VERTEX_POINT ( 'NONE', #198 ) ;
#108 = CC_DESIGN_APPROVAL ( #37, ( #68 ) ) ;
#109 = EDGE_CURVE ( 'NONE', #107, #182, #190, .T. ) ;
#110 = FACE_OUTER_BOUND ( 'NONE', #156, .T. ) ;
#111 = CC_DESIGN_PERSON_AND_ORGANIZATION_ASSIGNMENT ( #46, #194, ( #83 ) ) ;
#112 = APPROVAL ( #226, 'UNSPECIFIED' ) ;
#113 = CARTESIAN_POINT ( 'NONE',  ( 0.0000000000000000000, 5.564611271768882600E-016, -6.848999999999999300 ) ) ;
#114 = LINE ( 'NONE', #250, #24 ) ;
#115 = CC_DESIGN_SECURITY_CLASSIFICATION ( #68, ( #31 ) ) ;
#116 = APPLICATION_CONTEXT ( 'configuration controlled 3d designs of mechanical parts and assemblies' ) ;
#117 = AXIS2_PLACEMENT_3D ( 'NONE', #218, #168, #206 ) ;
#118 = LOCAL_TIME ( 11, 26, 18.00000000000000000, #99 ) ;
#119 = MECHANICAL_CONTEXT ( 'NONE', #158, 'mechanical' ) ;
#120 = AXIS2_PLACEMENT_3D ( 'NONE', #204, #155, #97 ) ;
#121 = DIRECTION ( 'NONE',  ( 0.0000000000000000000, -3.061515884555943100E-016, 1.000000000000000000 ) ) ;
#122 = LOCAL_TIME ( 11, 26, 18.00000000000000000, #13 ) ;
#123 = ADVANCED_BREP_SHAPE_REPRESENTATION ( '20103-E0W', ( #88, #92 ), #79 ) ;
#124 = EDGE_CURVE ( 'NONE', #107, #248, #51, .T. ) ;
#125 = CC_DESIGN_PERSON_AND_ORGANIZATION_ASSIGNMENT ( #147, #212, ( #200 ) ) ;
#126 = EDGE_CURVE ( 'NONE', #182, #178, #7, .T. ) ;
#127 = DIRECTION ( 'NONE',  ( -0.0000000000000000000, 3.061515884555943100E-016, -1.000000000000000000 ) ) ;
#128 = CARTESIAN_POINT ( 'NONE',  ( 7.776507174585692200E-016, -6.349999999999998800, -2.285000000000001900 ) ) ;
#129 = DIRECTION ( 'NONE',  ( 0.0000000000000000000, 1.000000000000000000, 3.073328992872296900E-016 ) ) ;
#130 = DIRECTION ( 'NONE',  ( 1.000000000000000000, 0.0000000000000000000, -0.0000000000000000000 ) ) ;
#131 = PERSON_AND_ORGANIZATION ( #19, #233 ) ;
#132 = LINE ( 'NONE', #128, #217 ) ;
#133 = CARTESIAN_POINT ( 'NONE',  ( 0.0000000000000000000, 5.564611271768882600E-016, -6.848999999999999300 ) ) ;
#134 = DIRECTION ( 'NONE',  ( 0.0000000000000000000, 1.000000000000000000, 2.848790468540848100E-016 ) ) ;
#135 = DIRECTION ( 'NONE',  ( 0.0000000000000000000, 1.000000000000000000, 2.794075062123208900E-016 ) ) ;
#136 =( NAMED_UNIT ( * ) SI_UNIT ( $, .STERADIAN. ) SOLID_ANGLE_UNIT ( ) );
#137 = ADVANCED_FACE ( 'NONE', ( #35 ), #220, .T. ) ;
#138 = DIRECTION ( 'NONE',  ( 1.000000000000000000, 0.0000000000000000000, -0.0000000000000000000 ) ) ;
#139 = EDGE_CURVE ( 'NONE', #10, #248, #151, .T. ) ;
#140 = DIRECTION ( 'NONE',  ( 0.0000000000000000000, 1.000000000000000000, 2.731847993664263200E-016 ) ) ;
#141 = PRODUCT_DEFINITION_SHAPE ( 'NONE', 'NONE',  #200 ) ;
#142 = DIRECTION ( 'NONE',  ( -1.224646799147353200E-016, 1.000000000000000000, 0.0000000000000000000 ) ) ;
#143 = PERSON_AND_ORGANIZATION_ROLE ( 'design_supplier' ) ;
#144 = APPLICATION_PROTOCOL_DEFINITION ( 'international standard', 'config_control_design', 1994, #158 ) ;
#145 = DATE_AND_TIME ( #104, #118 ) ;
#146 = CARTESIAN_POINT ( 'NONE',  ( 7.776507174585692200E-016, -6.349999999999998800, -2.143578643762691800 ) ) ;
#147 = PERSON_AND_ORGANIZATION ( #19, #233 ) ;
#148 = CIRCLE ( 'NONE', #224, 6.208578643762691300 ) ;
#149 = VERTEX_POINT ( 'NONE', #166 ) ;
#150 = ORIENTED_EDGE ( 'NONE', *, *, #126, .T. ) ;
#151 = CIRCLE ( 'NONE', #17, 9.134000000000000300 ) ;
#152 = CARTESIAN_POINT ( 'NONE',  ( 0.0000000000000000000, 5.564611271768882600E-016, -6.848999999999999300 ) ) ;
#153 = CC_DESIGN_PERSON_AND_ORGANIZATION_ASSIGNMENT ( #192, #12, ( #31 ) ) ;
#154 = PLANE ( 'NONE',  #243 ) ;
#155 = DIRECTION ( 'NONE',  ( -0.0000000000000000000, 3.061515884555943100E-016, -1.000000000000000000 ) ) ;
#156 = EDGE_LOOP ( 'NONE', ( #186, #52, #193, #183 ) ) ;
#157 = ORIENTED_EDGE ( 'NONE', *, *, #94, .T. ) ;
#158 = APPLICATION_CONTEXT ( 'configuration controlled 3d designs of mechanical parts and assemblies' ) ;
#159 = EDGE_LOOP ( 'NONE', ( #245, #173, #191, #214 ) ) ;
#160 = CARTESIAN_POINT ( 'NONE',  ( 0.0000000000000000000, -1.680631288605914000E-015, 2.285000000000000600 ) ) ;
#161 = APPROVAL_DATE_TIME ( #189, #91 ) ;
#162 = CARTESIAN_POINT ( 'NONE',  ( 0.0000000000000000000, 5.564611271768882600E-016, -6.848999999999999300 ) ) ;
#163 = DIRECTION ( 'NONE',  ( 0.0000000000000000000, -0.7071067811865401300, 0.7071067811865549000 ) ) ;
#164 = CARTESIAN_POINT ( 'NONE',  ( 0.0000000000000000000, -6.208578643762690400, -2.285000000000003700 ) ) ;
#165 = DIRECTION ( 'NONE',  ( 0.0000000000000000000, -1.000000000000000000, -2.794075062123208900E-016 ) ) ;
#166 = CARTESIAN_POINT ( 'NONE',  ( 7.689911568962143300E-016, 6.208578643762692200, -2.285000000000000100 ) ) ;
#167 = DIRECTION ( 'NONE',  ( 0.0000000000000000000, -3.061515884555943100E-016, 1.000000000000000000 ) ) ;
#168 = DIRECTION ( 'NONE',  ( -0.0000000000000000000, 3.061515884555943100E-016, -1.000000000000000000 ) ) ;
#169 = ORIENTED_EDGE ( 'NONE', *, *, #139, .T. ) ;
#170 = PERSON_AND_ORGANIZATION ( #19, #233 ) ;
#171 = LINE ( 'NONE', #164, #54 ) ;
#172 = APPROVAL_ROLE ( '' ) ;
#173 = ORIENTED_EDGE ( 'NONE', *, *, #199, .T. ) ;
#174 = SPHERICAL_SURFACE ( 'NONE', #36, 9.134000000000000300 ) ;
#175 = CARTESIAN_POINT ( 'NONE',  ( 0.0000000000000000000, 8.370184428375954200E-016, -2.285000000000001900 ) ) ;
#176 = PERSON_AND_ORGANIZATION ( #19, #233 ) ;
#177 = EDGE_CURVE ( 'NONE', #10, #107, #72, .T. ) ;
#178 = VERTEX_POINT ( 'NONE', #146 ) ;
#179 = LOCAL_TIME ( 11, 26, 18.00000000000000000, #47 ) ;
#180 = ORIENTED_EDGE ( 'NONE', *, *, #177, .F. ) ;
#181 = EDGE_LOOP ( 'NONE', ( #225, #202, #102 ) ) ;
#182 = VERTEX_POINT ( 'NONE', #251 ) ;
#183 = ORIENTED_EDGE ( 'NONE', *, *, #109, .F. ) ;
#184 = APPLICATION_PROTOCOL_DEFINITION ( 'international standard', 'config_control_design', 1994, #116 ) ;
#185 = PERSON_AND_ORGANIZATION ( #19, #233 ) ;
#186 = ORIENTED_EDGE ( 'NONE', *, *, #124, .T. ) ;
#187 = CC_DESIGN_PERSON_AND_ORGANIZATION_ASSIGNMENT ( #131, #143, ( #31 ) ) ;
#188 = ORIENTED_EDGE ( 'NONE', *, *, #124, .F. ) ;
#189 = DATE_AND_TIME ( #57, #179 ) ;
#190 = LINE ( 'NONE', #90, #41 ) ;
#191 = ORIENTED_EDGE ( 'NONE', *, *, #109, .T. ) ;
#192 = PERSON_AND_ORGANIZATION ( #19, #233 ) ;
#193 = ORIENTED_EDGE ( 'NONE', *, *, #126, .F. ) ;
#194 = PERSON_AND_ORGANIZATION_ROLE ( 'design_owner' ) ;
#195 = DATE_AND_TIME ( #21, #122 ) ;
#196 = CLOSED_SHELL ( 'NONE', ( #137, #221, #203, #69, #25, #55, #5 ) ) ;
#197 = CYLINDRICAL_SURFACE ( 'NONE', #211, 6.349999999999999600 ) ;
#198 = CARTESIAN_POINT ( 'NONE',  ( 0.0000000000000000000, 6.349999999999998800, -0.2833731449312448200 ) ) ;
#199 = EDGE_CURVE ( 'NONE', #248, #107, #239, .T. ) ;
#200 = PRODUCT_DEFINITION ( 'UNKNOWN', '', #31, #61 ) ;
#201 = EDGE_LOOP ( 'NONE', ( #157, #43 ) ) ;
#202 = ORIENTED_EDGE ( 'NONE', *, *, #177, .T. ) ;
#203 = ADVANCED_FACE ( 'NONE', ( #78 ), #101, .T. ) ;
#204 = CARTESIAN_POINT ( 'NONE',  ( 0.0000000000000000000, 8.370184428375948200E-016, -2.285000000000000100 ) ) ;
#205 = ORIENTED_EDGE ( 'NONE', *, *, #73, .F. ) ;
#206 = DIRECTION ( 'NONE',  ( 0.0000000000000000000, 1.000000000000000000, 2.731847993664263200E-016 ) ) ;
#207 = DIRECTION ( 'NONE',  ( 0.0000000000000000000, 1.000000000000000000, 2.848790468540848100E-016 ) ) ;
#208 = DIRECTION ( 'NONE',  ( -0.0000000000000000000, 3.061515884555943100E-016, -1.000000000000000000 ) ) ;
#209 = CARTESIAN_POINT ( 'NONE',  ( 0.0000000000000000000, 7.937220699839978900E-016, -2.143578643762690000 ) ) ;
#210 = FACE_OUTER_BOUND ( 'NONE', #86, .T. ) ;
#211 = AXIS2_PLACEMENT_3D ( 'NONE', #18, #100, #140 ) ;
#212 = PERSON_AND_ORGANIZATION_ROLE ( 'creator' ) ;
#213 = UNCERTAINTY_MEASURE_WITH_UNIT (LENGTH_MEASURE( 1.000000000000000100E-005 ), #81, 'distance_accuracy_value', 'NONE');
#214 = ORIENTED_EDGE ( 'NONE', *, *, #219, .F. ) ;
#215 = CARTESIAN_POINT ( 'NONE',  ( 0.0000000000000000000, 2.242172016629203000E-016, -0.2833731449312466600 ) ) ;
#216 = DIRECTION ( 'NONE',  ( -0.0000000000000000000, 3.061515884555943100E-016, -1.000000000000000000 ) ) ;
#217 = VECTOR ( 'NONE', #127, 1000.000000000000000 ) ;
#218 = CARTESIAN_POINT ( 'NONE',  ( 0.0000000000000000000, 7.937220699839978900E-016, -2.143578643762690000 ) ) ;
#219 = EDGE_CURVE ( 'NONE', #178, #182, #93, .T. ) ;
#220 = CONICAL_SURFACE ( 'NONE', #59, 6.208578643762691300, 0.7853981633974375100 ) ;
#221 = ADVANCED_FACE ( 'NONE', ( #110 ), #105, .T. ) ;
#222 = EDGE_LOOP ( 'NONE', ( #180, #169, #188 ) ) ;
#223 = DIRECTION ( 'NONE',  ( 0.0000000000000000000, 0.0000000000000000000, 1.000000000000000000 ) ) ;
#224 = AXIS2_PLACEMENT_3D ( 'NONE', #33, #234, #135 ) ;
#225 = ORIENTED_EDGE ( 'NONE', *, *, #139, .F. ) ;
#226 = APPROVAL_STATUS ( 'not_yet_approved' ) ;
#227 = LOCAL_TIME ( 11, 26, 18.00000000000000000, #75 ) ;
#228 = DIRECTION ( 'NONE',  ( 1.000000000000000000, 0.0000000000000000000, 0.0000000000000000000 ) ) ;
#229 = CARTESIAN_POINT ( 'NONE',  ( 0.0000000000000000000, 0.0000000000000000000, 0.0000000000000000000 ) ) ;
#230 = DATE_AND_TIME ( #1, #27 ) ;
#231 = DATE_TIME_ROLE ( 'classification_date' ) ;
#232 = FACE_OUTER_BOUND ( 'NONE', #201, .T. ) ;
#233 = ORGANIZATION ( 'UNSPECIFIED', 'UNSPECIFIED', '' ) ;
#234 = DIRECTION ( 'NONE',  ( -0.0000000000000000000, 3.061515884555943100E-016, -1.000000000000000000 ) ) ;
#235 = AXIS2_PLACEMENT_3D ( 'NONE', #240, #216, #20 ) ;
#236 = CC_DESIGN_DATE_AND_TIME_ASSIGNMENT ( #195, #45, ( #200 ) ) ;
#237 = CONICAL_SURFACE ( 'NONE', #71, 6.208578643762691300, 0.7853981633974375100 ) ;
#238 = DIRECTION ( 'NONE',  ( -0.0000000000000000000, 3.061515884555943100E-016, -1.000000000000000000 ) ) ;
#239 = CIRCLE ( 'NONE', #65, 6.349999999999998800 ) ;
#240 = CARTESIAN_POINT ( 'NONE',  ( 0.0000000000000000000, 8.370184428375954200E-016, -2.285000000000001900 ) ) ;
#241 = CARTESIAN_POINT ( 'NONE',  ( 0.0000000000000000000, 8.370184428375954200E-016, -2.285000000000001900 ) ) ;
#242 = APPROVAL_PERSON_ORGANIZATION ( #170, #112, #172 ) ;
#243 = AXIS2_PLACEMENT_3D ( 'NONE', #2, #29, #40 ) ;
#244 = APPROVAL_DATE_TIME ( #230, #112 ) ;
#245 = ORIENTED_EDGE ( 'NONE', *, *, #28, .F. ) ;
#246 = COORDINATED_UNIVERSAL_TIME_OFFSET ( 5, 0, .BEHIND. ) ;
#247 = APPROVAL_STATUS ( 'not_yet_approved' ) ;
#248 = VERTEX_POINT ( 'NONE', #87 ) ;
#249 = DIRECTION ( 'NONE',  ( 0.0000000000000000000, 0.0000000000000000000, 1.000000000000000000 ) ) ;
#250 = CARTESIAN_POINT ( 'NONE',  ( 7.603315963338594400E-016, 6.208578643762692200, -2.285000000000000100 ) ) ;
#251 = CARTESIAN_POINT ( 'NONE',  ( 0.0000000000000000000, 6.350000000000000500, -2.143578643762688300 ) ) ;
ENDSEC;
END-ISO-10303-21;
