ISO-10303-21;
HEADER;
FILE_DESCRIPTION (( 'STEP AP203' ),
    '1' );
FILE_NAME ('Web Model 64144.STEP',
    '2017-01-31T19:05:32',
    ( '' ),
    ( '' ),
    'SwSTEP 2.0',
    'SolidWorks 2016',
    '' );
FILE_SCHEMA (( 'CONFIG_CONTROL_DESIGN' ));
ENDSEC;

DATA;
#1 = CC_DESIGN_SECURITY_CLASSIFICATION ( #44, ( #57 ) ) ;
#2 = CARTESIAN_POINT ( 'NONE',  ( 0.0000000000000000000, 0.0000000000000000000, 2.000000000000000000 ) ) ;
#3 = ORIENTED_EDGE ( 'NONE', *, *, #12, .F. ) ;
#4 = EDGE_CURVE ( 'NONE', #13, #71, #123, .T. ) ;
#5 = DIRECTION ( 'NONE',  ( -0.0000000000000000000, -0.0000000000000000000, -1.000000000000000000 ) ) ;
#6 = PERSON_AND_ORGANIZATION ( #97, #116 ) ;
#7 = AXIS2_PLACEMENT_3D ( 'NONE', #35, #49, #143 ) ;
#8 = APPROVAL_STATUS ( 'not_yet_approved' ) ;
#9 = APPROVAL_STATUS ( 'not_yet_approved' ) ;
#10 = LOCAL_TIME ( 14, 5, 32.00000000000000000, #122 ) ;
#11 = CIRCLE ( 'NONE', #144, 6.250000000000000000 ) ;
#12 = EDGE_CURVE ( 'NONE', #93, #20, #163, .T. ) ;
#13 = VERTEX_POINT ( 'NONE', #37 ) ;
#14 = ADVANCED_BREP_SHAPE_REPRESENTATION ( 'Web Model 64144', ( #174, #80 ), #91 ) ;
#15 = CALENDAR_DATE ( 2017, 31, 1 ) ;
#16 = CC_DESIGN_DATE_AND_TIME_ASSIGNMENT ( #102, #94, ( #148 ) ) ;
#17 = AXIS2_PLACEMENT_3D ( 'NONE', #19, #5, #124 ) ;
#18 = DIRECTION ( 'NONE',  ( -0.0000000000000000000, -0.0000000000000000000, -1.000000000000000000 ) ) ;
#19 = CARTESIAN_POINT ( 'NONE',  ( 0.0000000000000000000, 0.0000000000000000000, 2.000000000000000000 ) ) ;
#20 = VERTEX_POINT ( 'NONE', #47 ) ;
#21 = DATE_AND_TIME ( #165, #10 ) ;
#22 = CC_DESIGN_APPROVAL ( #156, ( #148 ) ) ;
#23 = AXIS2_PLACEMENT_3D ( 'NONE', #84, #60, #89 ) ;
#24 = APPROVAL_STATUS ( 'not_yet_approved' ) ;
#25 = PERSON_AND_ORGANIZATION_ROLE ( 'design_supplier' ) ;
#26 = PERSON_AND_ORGANIZATION ( #97, #116 ) ;
#27 = FACE_OUTER_BOUND ( 'NONE', #104, .T. ) ;
#28 = CC_DESIGN_PERSON_AND_ORGANIZATION_ASSIGNMENT ( #154, #95, ( #57 ) ) ;
#29 = CALENDAR_DATE ( 2017, 31, 1 ) ;
#30 = ADVANCED_FACE ( 'NONE', ( #128 ), #110, .T. ) ;
#31 = LOCAL_TIME ( 14, 5, 32.00000000000000000, #171 ) ;
#32 = ORIENTED_EDGE ( 'NONE', *, *, #119, .T. ) ;
#33 = CC_DESIGN_APPROVAL ( #121, ( #44 ) ) ;
#34 = PLANE ( 'NONE',  #7 ) ;
#35 = CARTESIAN_POINT ( 'NONE',  ( 0.0000000000000000000, 0.0000000000000000000, 0.0000000000000000000 ) ) ;
#36 = PERSON_AND_ORGANIZATION ( #97, #116 ) ;
#37 = CARTESIAN_POINT ( 'NONE',  ( -6.250000000000000000, 0.0000000000000000000, 2.000000000000000000 ) ) ;
#38 = CC_DESIGN_PERSON_AND_ORGANIZATION_ASSIGNMENT ( #54, #25, ( #57 ) ) ;
#39 = PERSON_AND_ORGANIZATION_ROLE ( 'classification_officer' ) ;
#40 = CLOSED_SHELL ( 'NONE', ( #96, #30, #155, #173 ) ) ;
#41 = CC_DESIGN_PERSON_AND_ORGANIZATION_ASSIGNMENT ( #79, #52, ( #131 ) ) ;
#42 = EDGE_LOOP ( 'NONE', ( #65, #32, #67, #108 ) ) ;
#43 = DESIGN_CONTEXT ( 'detailed design', #74, 'design' ) ;
#44 = SECURITY_CLASSIFICATION ( '', '', #92 ) ;
#45 = DIRECTION ( 'NONE',  ( 1.000000000000000000, 0.0000000000000000000, 0.0000000000000000000 ) ) ;
#46 = LOCAL_TIME ( 14, 5, 32.00000000000000000, #64 ) ;
#47 = CARTESIAN_POINT ( 'NONE',  ( 6.250000000000000000, 7.654042494670957600E-016, 0.0000000000000000000 ) ) ;
#48 = ORIENTED_EDGE ( 'NONE', *, *, #12, .T. ) ;
#49 = DIRECTION ( 'NONE',  ( 0.0000000000000000000, 0.0000000000000000000, 1.000000000000000000 ) ) ;
#50 = CC_DESIGN_PERSON_AND_ORGANIZATION_ASSIGNMENT ( #26, #153, ( #148 ) ) ;
#51 = ORIENTED_EDGE ( 'NONE', *, *, #130, .T. ) ;
#52 = PERSON_AND_ORGANIZATION_ROLE ( 'design_owner' ) ;
#53 = CC_DESIGN_APPROVAL ( #159, ( #57 ) ) ;
#54 = PERSON_AND_ORGANIZATION ( #97, #116 ) ;
#55 = VECTOR ( 'NONE', #18, 1000.000000000000000 ) ;
#56 = APPROVAL_PERSON_ORGANIZATION ( #36, #159, #77 ) ;
#57 = PRODUCT_DEFINITION_FORMATION_WITH_SPECIFIED_SOURCE ( 'ANY', '', #131, .NOT_KNOWN. ) ;
#58 = DATE_AND_TIME ( #15, #135 ) ;
#59 = FACE_OUTER_BOUND ( 'NONE', #76, .T. ) ;
#60 = DIRECTION ( 'NONE',  ( 0.0000000000000000000, 0.0000000000000000000, 1.000000000000000000 ) ) ;
#61 = CC_DESIGN_PERSON_AND_ORGANIZATION_ASSIGNMENT ( #146, #39, ( #44 ) ) ;
#62 = EDGE_CURVE ( 'NONE', #13, #93, #149, .T. ) ;
#63 = DATE_TIME_ROLE ( 'classification_date' ) ;
#64 = COORDINATED_UNIVERSAL_TIME_OFFSET ( 5, 0, .BEHIND. ) ;
#65 = ORIENTED_EDGE ( 'NONE', *, *, #130, .F. ) ;
#66 = DIRECTION ( 'NONE',  ( -1.000000000000000000, 0.0000000000000000000, 0.0000000000000000000 ) ) ;
#67 = ORIENTED_EDGE ( 'NONE', *, *, #69, .T. ) ;
#68 = CC_DESIGN_DATE_AND_TIME_ASSIGNMENT ( #58, #63, ( #44 ) ) ;
#69 = EDGE_CURVE ( 'NONE', #20, #93, #11, .T. ) ;
#70 = CARTESIAN_POINT ( 'NONE',  ( 0.0000000000000000000, 0.0000000000000000000, 0.0000000000000000000 ) ) ;
#71 = VERTEX_POINT ( 'NONE', #85 ) ;
#72 = APPROVAL_PERSON_ORGANIZATION ( #150, #121, #117 ) ;
#73 = VECTOR ( 'NONE', #100, 1000.000000000000000 ) ;
#74 = APPLICATION_CONTEXT ( 'configuration controlled 3d designs of mechanical parts and assemblies' ) ;
#75 = MECHANICAL_CONTEXT ( 'NONE', #106, 'mechanical' ) ;
#76 = EDGE_LOOP ( 'NONE', ( #145, #51 ) ) ;
#77 = APPROVAL_ROLE ( '' ) ;
#78 = SHAPE_DEFINITION_REPRESENTATION ( #139, #14 ) ;
#79 = PERSON_AND_ORGANIZATION ( #97, #116 ) ;
#80 = AXIS2_PLACEMENT_3D ( 'NONE', #127, #168, #141 ) ;
#81 = AXIS2_PLACEMENT_3D ( 'NONE', #134, #151, #111 ) ;
#82 = CYLINDRICAL_SURFACE ( 'NONE', #17, 6.250000000000000000 ) ;
#83 = DATE_AND_TIME ( #118, #126 ) ;
#84 = CARTESIAN_POINT ( 'NONE',  ( 0.0000000000000000000, 0.0000000000000000000, 0.0000000000000000000 ) ) ;
#85 = CARTESIAN_POINT ( 'NONE',  ( 6.250000000000000000, 7.654042494670957600E-016, 2.000000000000000000 ) ) ;
#86 = CARTESIAN_POINT ( 'NONE',  ( -6.250000000000000000, 0.0000000000000000000, 2.000000000000000000 ) ) ;
#87 = ORIENTED_EDGE ( 'NONE', *, *, #69, .F. ) ;
#88 = COORDINATED_UNIVERSAL_TIME_OFFSET ( 5, 0, .BEHIND. ) ;
#89 = DIRECTION ( 'NONE',  ( 1.000000000000000000, 0.0000000000000000000, 0.0000000000000000000 ) ) ;
#90 = APPROVAL_ROLE ( '' ) ;
#91 =( GEOMETRIC_REPRESENTATION_CONTEXT ( 3 ) GLOBAL_UNCERTAINTY_ASSIGNED_CONTEXT ( ( #167 ) ) GLOBAL_UNIT_ASSIGNED_CONTEXT ( ( #166, #107, #105 ) ) REPRESENTATION_CONTEXT ( 'NONE', 'WORKASPACE' ) );
#92 = SECURITY_CLASSIFICATION_LEVEL ( 'unclassified' ) ;
#93 = VERTEX_POINT ( 'NONE', #101 ) ;
#94 = DATE_TIME_ROLE ( 'creation_date' ) ;
#95 = PERSON_AND_ORGANIZATION_ROLE ( 'creator' ) ;
#96 = ADVANCED_FACE ( 'NONE', ( #120 ), #82, .T. ) ;
#97 = PERSON ( 'UNSPECIFIED', 'UNSPECIFIED', 'UNSPECIFIED', ('UNSPECIFIED'), ('UNSPECIFIED'), ('UNSPECIFIED') ) ;
#98 = CALENDAR_DATE ( 2017, 31, 1 ) ;
#99 = CIRCLE ( 'NONE', #160, 6.250000000000000000 ) ;
#100 = DIRECTION ( 'NONE',  ( -0.0000000000000000000, -0.0000000000000000000, -1.000000000000000000 ) ) ;
#101 = CARTESIAN_POINT ( 'NONE',  ( -6.250000000000000000, 0.0000000000000000000, 0.0000000000000000000 ) ) ;
#102 = DATE_AND_TIME ( #98, #31 ) ;
#103 = ORIENTED_EDGE ( 'NONE', *, *, #4, .F. ) ;
#104 = EDGE_LOOP ( 'NONE', ( #3, #87 ) ) ;
#105 =( NAMED_UNIT ( * ) SI_UNIT ( $, .STERADIAN. ) SOLID_ANGLE_UNIT ( ) );
#106 = APPLICATION_CONTEXT ( 'configuration controlled 3d designs of mechanical parts and assemblies' ) ;
#107 =( NAMED_UNIT ( * ) PLANE_ANGLE_UNIT ( ) SI_UNIT ( $, .RADIAN. ) );
#108 = ORIENTED_EDGE ( 'NONE', *, *, #62, .F. ) ;
#109 = DIRECTION ( 'NONE',  ( 1.000000000000000000, 0.0000000000000000000, 0.0000000000000000000 ) ) ;
#110 = CYLINDRICAL_SURFACE ( 'NONE', #152, 6.250000000000000000 ) ;
#111 = DIRECTION ( 'NONE',  ( 1.000000000000000000, 0.0000000000000000000, 0.0000000000000000000 ) ) ;
#112 = CARTESIAN_POINT ( 'NONE',  ( 0.0000000000000000000, 0.0000000000000000000, 2.000000000000000000 ) ) ;
#113 = APPROVAL_DATE_TIME ( #83, #121 ) ;
#114 = CARTESIAN_POINT ( 'NONE',  ( 0.0000000000000000000, 0.0000000000000000000, 2.000000000000000000 ) ) ;
#115 = APPLICATION_PROTOCOL_DEFINITION ( 'international standard', 'config_control_design', 1994, #106 ) ;
#116 = ORGANIZATION ( 'UNSPECIFIED', 'UNSPECIFIED', '' ) ;
#117 = APPROVAL_ROLE ( '' ) ;
#118 = CALENDAR_DATE ( 2017, 31, 1 ) ;
#119 = EDGE_CURVE ( 'NONE', #71, #20, #133, .T. ) ;
#120 = FACE_OUTER_BOUND ( 'NONE', #42, .T. ) ;
#121 = APPROVAL ( #9, 'UNSPECIFIED' ) ;
#122 = COORDINATED_UNIVERSAL_TIME_OFFSET ( 5, 0, .BEHIND. ) ;
#123 = CIRCLE ( 'NONE', #81, 6.250000000000000000 ) ;
#124 = DIRECTION ( 'NONE',  ( -1.000000000000000000, 0.0000000000000000000, 0.0000000000000000000 ) ) ;
#125 = DIRECTION ( 'NONE',  ( 0.0000000000000000000, 0.0000000000000000000, 1.000000000000000000 ) ) ;
#126 = LOCAL_TIME ( 14, 5, 32.00000000000000000, #175 ) ;
#127 = CARTESIAN_POINT ( 'NONE',  ( 0.0000000000000000000, 0.0000000000000000000, 0.0000000000000000000 ) ) ;
#128 = FACE_OUTER_BOUND ( 'NONE', #169, .T. ) ;
#129 = AXIS2_PLACEMENT_3D ( 'NONE', #114, #125, #140 ) ;
#130 = EDGE_CURVE ( 'NONE', #71, #13, #99, .T. ) ;
#131 = PRODUCT ( 'Web Model 64144', 'Web Model 64144', '', ( #75 ) ) ;
#132 = DATE_AND_TIME ( #29, #46 ) ;
#133 = LINE ( 'NONE', #137, #55 ) ;
#134 = CARTESIAN_POINT ( 'NONE',  ( 0.0000000000000000000, 0.0000000000000000000, 2.000000000000000000 ) ) ;
#135 = LOCAL_TIME ( 14, 5, 32.00000000000000000, #88 ) ;
#136 = ORIENTED_EDGE ( 'NONE', *, *, #119, .F. ) ;
#137 = CARTESIAN_POINT ( 'NONE',  ( 6.250000000000000000, 7.654042494670957600E-016, 2.000000000000000000 ) ) ;
#138 = ORIENTED_EDGE ( 'NONE', *, *, #62, .T. ) ;
#139 = PRODUCT_DEFINITION_SHAPE ( 'NONE', 'NONE',  #148 ) ;
#140 = DIRECTION ( 'NONE',  ( 1.000000000000000000, 0.0000000000000000000, -0.0000000000000000000 ) ) ;
#141 = DIRECTION ( 'NONE',  ( 1.000000000000000000, 0.0000000000000000000, 0.0000000000000000000 ) ) ;
#142 = APPLICATION_PROTOCOL_DEFINITION ( 'international standard', 'config_control_design', 1994, #74 ) ;
#143 = DIRECTION ( 'NONE',  ( 1.000000000000000000, 0.0000000000000000000, -0.0000000000000000000 ) ) ;
#144 = AXIS2_PLACEMENT_3D ( 'NONE', #70, #158, #45 ) ;
#145 = ORIENTED_EDGE ( 'NONE', *, *, #4, .T. ) ;
#146 = PERSON_AND_ORGANIZATION ( #97, #116 ) ;
#147 = DIRECTION ( 'NONE',  ( 0.0000000000000000000, 0.0000000000000000000, 1.000000000000000000 ) ) ;
#148 = PRODUCT_DEFINITION ( 'UNKNOWN', '', #57, #43 ) ;
#149 = LINE ( 'NONE', #86, #73 ) ;
#150 = PERSON_AND_ORGANIZATION ( #97, #116 ) ;
#151 = DIRECTION ( 'NONE',  ( 0.0000000000000000000, 0.0000000000000000000, 1.000000000000000000 ) ) ;
#152 = AXIS2_PLACEMENT_3D ( 'NONE', #112, #161, #66 ) ;
#153 = PERSON_AND_ORGANIZATION_ROLE ( 'creator' ) ;
#154 = PERSON_AND_ORGANIZATION ( #97, #116 ) ;
#155 = ADVANCED_FACE ( 'NONE', ( #59 ), #164, .T. ) ;
#156 = APPROVAL ( #24, 'UNSPECIFIED' ) ;
#157 = APPROVAL_DATE_TIME ( #21, #159 ) ;
#158 = DIRECTION ( 'NONE',  ( 0.0000000000000000000, 0.0000000000000000000, 1.000000000000000000 ) ) ;
#159 = APPROVAL ( #8, 'UNSPECIFIED' ) ;
#160 = AXIS2_PLACEMENT_3D ( 'NONE', #2, #147, #109 ) ;
#161 = DIRECTION ( 'NONE',  ( -0.0000000000000000000, -0.0000000000000000000, -1.000000000000000000 ) ) ;
#162 = APPROVAL_DATE_TIME ( #132, #156 ) ;
#163 = CIRCLE ( 'NONE', #23, 6.250000000000000000 ) ;
#164 = PLANE ( 'NONE',  #129 ) ;
#165 = CALENDAR_DATE ( 2017, 31, 1 ) ;
#166 =( LENGTH_UNIT ( ) NAMED_UNIT ( * ) SI_UNIT ( .MILLI., .METRE. ) );
#167 = UNCERTAINTY_MEASURE_WITH_UNIT (LENGTH_MEASURE( 1.000000000000000100E-005 ), #166, 'distance_accuracy_value', 'NONE');
#168 = DIRECTION ( 'NONE',  ( 0.0000000000000000000, 0.0000000000000000000, 1.000000000000000000 ) ) ;
#169 = EDGE_LOOP ( 'NONE', ( #136, #103, #138, #48 ) ) ;
#170 = PRODUCT_RELATED_PRODUCT_CATEGORY ( 'detail', '', ( #131 ) ) ;
#171 = COORDINATED_UNIVERSAL_TIME_OFFSET ( 5, 0, .BEHIND. ) ;
#172 = APPROVAL_PERSON_ORGANIZATION ( #6, #156, #90 ) ;
#173 = ADVANCED_FACE ( 'NONE', ( #27 ), #34, .F. ) ;
#174 = MANIFOLD_SOLID_BREP ( 'Extrude1', #40 ) ;
#175 = COORDINATED_UNIVERSAL_TIME_OFFSET ( 5, 0, .BEHIND. ) ;
ENDSEC;
END-ISO-10303-21;
