ISO-10303-21;
HEADER;
FILE_DESCRIPTION (( 'STEP AP203' ),
    '1' );
FILE_NAME ('step_32506.step',
    '2014-06-05T19:28:14',
    ( '' ),
    ( '' ),
    'SwSTEP 2.0',
    'SolidWorks 2014',
    '' );
FILE_SCHEMA (( 'CONFIG_CONTROL_DESIGN' ));
ENDSEC;

DATA;
#1 =( NAMED_UNIT ( * ) SI_UNIT ( $, .STERADIAN. ) SOLID_ANGLE_UNIT ( ) );
#2 = VECTOR ( 'NONE', #185, 1000.000000000000000 ) ;
#3 = PLANE ( 'NONE',  #192 ) ;
#4 = CARTESIAN_POINT ( 'NONE',  ( 39.99999999999999300, 3.673940397442059200E-015, 40.00000000000000000 ) ) ;
#5 = CARTESIAN_POINT ( 'NONE',  ( 40.00000000000000000, 40.00000000000000000, 40.00000000000000000 ) ) ;
#6 = CARTESIAN_POINT ( 'NONE',  ( 0.0000000000000000000, 0.0000000000000000000, 0.0000000000000000000 ) ) ;
#7 = DIRECTION ( 'NONE',  ( -9.184850993605149700E-017, 1.000000000000000000, 0.0000000000000000000 ) ) ;
#8 = VECTOR ( 'NONE', #317, 1000.000000000000000 ) ;
#9 = LINE ( 'NONE', #292, #155 ) ;
#10 = DIRECTION ( 'NONE',  ( -1.000000000000000000, -9.184850993605149700E-017, 0.0000000000000000000 ) ) ;
#11 = EDGE_LOOP ( 'NONE', ( #111, #320, #204 ) ) ;
#12 = VERTEX_POINT ( 'NONE', #117 ) ;
#13 = APPROVAL ( #95, 'UNSPECIFIED' ) ;
#14 = CARTESIAN_POINT ( 'NONE',  ( 40.00000000000000000, 40.00000000000000000, 0.0000000000000000000 ) ) ;
#15 = PERSON ( 'UNSPECIFIED', 'UNSPECIFIED', 'UNSPECIFIED', ('UNSPECIFIED'), ('UNSPECIFIED'), ('UNSPECIFIED') ) ;
#16 = FACE_OUTER_BOUND ( 'NONE', #108, .T. ) ;
#17 = LOCAL_TIME ( 12, 28, 14.00000000000000000, #184 ) ;
#18 = LINE ( 'NONE', #94, #30 ) ;
#19 = CARTESIAN_POINT ( 'NONE',  ( 0.0000000000000000000, 0.0000000000000000000, 40.00000000000000000 ) ) ;
#20 = CARTESIAN_POINT ( 'NONE',  ( 39.99999999999999300, 3.673940397442059200E-015, 40.00000000000000000 ) ) ;
#21 = ORIENTED_EDGE ( 'NONE', *, *, #62, .T. ) ;
#22 = CLOSED_SHELL ( 'NONE', ( #279, #191, #212, #168, #92 ) ) ;
#23 = DIRECTION ( 'NONE',  ( 1.000000000000000000, 9.184850993605149700E-017, -0.0000000000000000000 ) ) ;
#24 = DIRECTION ( 'NONE',  ( 1.734723475976807300E-016, 1.000000000000000000, -0.0000000000000000000 ) ) ;
#25 = APPROVAL_ROLE ( '' ) ;
#26 = DATE_AND_TIME ( #34, #187 ) ;
#27 = LINE ( 'NONE', #136, #304 ) ;
#28 = CARTESIAN_POINT ( 'NONE',  ( 0.0000000000000000000, 40.00000000000000000, 0.0000000000000000000 ) ) ;
#29 = ORIENTED_EDGE ( 'NONE', *, *, #301, .F. ) ;
#30 = VECTOR ( 'NONE', #215, 1000.000000000000100 ) ;
#31 = CC_DESIGN_DATE_AND_TIME_ASSIGNMENT ( #173, #240, ( #38 ) ) ;
#32 = EDGE_CURVE ( 'NONE', #258, #170, #66, .T. ) ;
#33 = CC_DESIGN_PERSON_AND_ORGANIZATION_ASSIGNMENT ( #60, #285, ( #38 ) ) ;
#34 = CALENDAR_DATE ( 2014, 5, 6 ) ;
#35 = ORIENTED_EDGE ( 'NONE', *, *, #62, .F. ) ;
#36 = CARTESIAN_POINT ( 'NONE',  ( 0.0000000000000000000, 0.0000000000000000000, 40.00000000000000000 ) ) ;
#37 = DIRECTION ( 'NONE',  ( 0.0000000000000000000, 0.0000000000000000000, -1.000000000000000000 ) ) ;
#38 = SECURITY_CLASSIFICATION ( '', '', #281 ) ;
#39 = DIRECTION ( 'NONE',  ( 0.0000000000000000000, 0.0000000000000000000, -1.000000000000000000 ) ) ;
#40 = VERTEX_POINT ( 'NONE', #118 ) ;
#41 = CALENDAR_DATE ( 2014, 5, 6 ) ;
#42 = LINE ( 'NONE', #14, #277 ) ;
#43 = DIRECTION ( 'NONE',  ( -1.000000000000000000, 0.0000000000000000000, 0.0000000000000000000 ) ) ;
#44 = ADVANCED_FACE ( 'NONE', ( #197 ), #119, .F. ) ;
#45 =( LENGTH_UNIT ( ) NAMED_UNIT ( * ) SI_UNIT ( .MILLI., .METRE. ) );
#46 = LINE ( 'NONE', #199, #226 ) ;
#47 = VECTOR ( 'NONE', #23, 1000.000000000000000 ) ;
#48 = CC_DESIGN_PERSON_AND_ORGANIZATION_ASSIGNMENT ( #76, #276, ( #63 ) ) ;
#49 = CARTESIAN_POINT ( 'NONE',  ( 0.0000000000000000000, 0.0000000000000000000, 0.0000000000000000000 ) ) ;
#50 = ORIENTED_EDGE ( 'NONE', *, *, #244, .T. ) ;
#51 = ADVANCED_BREP_SHAPE_REPRESENTATION ( 'step_32506', ( #167, #218, #142 ), #189 ) ;
#52 = CC_DESIGN_PERSON_AND_ORGANIZATION_ASSIGNMENT ( #56, #275, ( #63 ) ) ;
#53 = EDGE_LOOP ( 'NONE', ( #81, #97, #125 ) ) ;
#54 = DIRECTION ( 'NONE',  ( -1.000000000000000000, 0.0000000000000000000, 0.0000000000000000000 ) ) ;
#55 = ORIENTED_EDGE ( 'NONE', *, *, #237, .T. ) ;
#56 = PERSON_AND_ORGANIZATION ( #15, #171 ) ;
#57 = CC_DESIGN_APPROVAL ( #61, ( #63 ) ) ;
#58 = CARTESIAN_POINT ( 'NONE',  ( 40.00000000000000000, 40.00000000000000000, 40.00000000000000000 ) ) ;
#59 = ORIENTED_EDGE ( 'NONE', *, *, #32, .T. ) ;
#60 = PERSON_AND_ORGANIZATION ( #15, #171 ) ;
#61 = APPROVAL ( #270, 'UNSPECIFIED' ) ;
#62 = EDGE_CURVE ( 'NONE', #258, #12, #242, .T. ) ;
#63 = PRODUCT_DEFINITION_FORMATION_WITH_SPECIFIED_SOURCE ( 'ANY', '', #311, .NOT_KNOWN. ) ;
#64 = APPROVAL_STATUS ( 'not_yet_approved' ) ;
#65 = ORIENTED_EDGE ( 'NONE', *, *, #232, .F. ) ;
#66 = LINE ( 'NONE', #113, #139 ) ;
#67 = MECHANICAL_CONTEXT ( 'NONE', #202, 'mechanical' ) ;
#68 = EDGE_CURVE ( 'NONE', #291, #284, #71, .T. ) ;
#69 = ADVANCED_FACE ( 'NONE', ( #224 ), #162, .F. ) ;
#70 = DIRECTION ( 'NONE',  ( -0.0000000000000000000, -0.0000000000000000000, -1.000000000000000000 ) ) ;
#71 = LINE ( 'NONE', #172, #2 ) ;
#72 = DIRECTION ( 'NONE',  ( 1.000000000000000000, 0.0000000000000000000, 0.0000000000000000000 ) ) ;
#73 = CC_DESIGN_DATE_AND_TIME_ASSIGNMENT ( #140, #269, ( #122 ) ) ;
#74 = DIRECTION ( 'NONE',  ( -1.000000000000000000, -0.0000000000000000000, -0.0000000000000000000 ) ) ;
#75 = VERTEX_POINT ( 'NONE', #231 ) ;
#76 = PERSON_AND_ORGANIZATION ( #15, #171 ) ;
#77 = CARTESIAN_POINT ( 'NONE',  ( 0.0000000000000000000, 0.0000000000000000000, 0.0000000000000000000 ) ) ;
#78 = PLANE ( 'NONE',  #254 ) ;
#79 = VECTOR ( 'NONE', #321, 1000.000000000000000 ) ;
#80 = PERSON_AND_ORGANIZATION ( #15, #171 ) ;
#81 = ORIENTED_EDGE ( 'NONE', *, *, #319, .T. ) ;
#82 = DIRECTION ( 'NONE',  ( 0.7071067811865474600, 0.7071067811865474600, 0.0000000000000000000 ) ) ;
#83 = EDGE_CURVE ( 'NONE', #166, #291, #278, .T. ) ;
#84 = FACE_OUTER_BOUND ( 'NONE', #246, .T. ) ;
#85 = CC_DESIGN_PERSON_AND_ORGANIZATION_ASSIGNMENT ( #180, #267, ( #122 ) ) ;
#86 = EDGE_CURVE ( 'NONE', #166, #93, #183, .T. ) ;
#87 = VECTOR ( 'NONE', #74, 1000.000000000000000 ) ;
#88 = ORIENTED_EDGE ( 'NONE', *, *, #306, .F. ) ;
#89 = EDGE_CURVE ( 'NONE', #12, #233, #259, .T. ) ;
#90 = CARTESIAN_POINT ( 'NONE',  ( 40.00000000000000000, 40.00000000000000000, 0.0000000000000000000 ) ) ;
#91 = CC_DESIGN_APPROVAL ( #103, ( #122 ) ) ;
#92 = ADVANCED_FACE ( 'NONE', ( #298 ), #225, .F. ) ;
#93 = VERTEX_POINT ( 'NONE', #293 ) ;
#94 = CARTESIAN_POINT ( 'NONE',  ( 0.0000000000000000000, 0.0000000000000000000, 40.00000000000000000 ) ) ;
#95 = APPROVAL_STATUS ( 'not_yet_approved' ) ;
#96 = ORIENTED_EDGE ( 'NONE', *, *, #236, .T. ) ;
#97 = ORIENTED_EDGE ( 'NONE', *, *, #243, .T. ) ;
#98 = CARTESIAN_POINT ( 'NONE',  ( 40.00000000000000000, 40.00000000000000000, 40.00000000000000000 ) ) ;
#99 = FACE_OUTER_BOUND ( 'NONE', #120, .T. ) ;
#100 = ORIENTED_EDGE ( 'NONE', *, *, #32, .F. ) ;
#101 = CARTESIAN_POINT ( 'NONE',  ( 0.0000000000000000000, 40.00000000000000000, 40.00000000000000000 ) ) ;
#102 = DIRECTION ( 'NONE',  ( 1.000000000000000000, 9.184850993605149700E-017, -0.0000000000000000000 ) ) ;
#103 = APPROVAL ( #64, 'UNSPECIFIED' ) ;
#104 = PLANE ( 'NONE',  #213 ) ;
#105 = CARTESIAN_POINT ( 'NONE',  ( 40.00000000000000000, 40.00000000000000000, 40.00000000000000000 ) ) ;
#106 = DIRECTION ( 'NONE',  ( -0.0000000000000000000, -1.000000000000000000, -0.0000000000000000000 ) ) ;
#107 = EDGE_LOOP ( 'NONE', ( #50, #294, #250, #96 ) ) ;
#108 = EDGE_LOOP ( 'NONE', ( #152, #21, #272 ) ) ;
#109 = DIRECTION ( 'NONE',  ( 1.734723475976807300E-016, 1.000000000000000000, -0.0000000000000000000 ) ) ;
#110 = DIRECTION ( 'NONE',  ( 1.000000000000000000, 0.0000000000000000000, -0.0000000000000000000 ) ) ;
#111 = ORIENTED_EDGE ( 'NONE', *, *, #237, .F. ) ;
#112 = LINE ( 'NONE', #249, #210 ) ;
#113 = CARTESIAN_POINT ( 'NONE',  ( 39.99999999999999300, 3.673940397442059200E-015, 40.00000000000000000 ) ) ;
#114 = CARTESIAN_POINT ( 'NONE',  ( 39.99999999999999300, 3.673940397442059200E-015, 40.00000000000000000 ) ) ;
#115 = UNCERTAINTY_MEASURE_WITH_UNIT (LENGTH_MEASURE( 1.000000000000000100E-005 ), #45, 'distance_accuracy_value', 'NONE');
#116 = CARTESIAN_POINT ( 'NONE',  ( 0.0000000000000000000, 0.0000000000000000000, 40.00000000000000000 ) ) ;
#117 = CARTESIAN_POINT ( 'NONE',  ( 40.00000000000000000, 40.00000000000000000, 40.00000000000000000 ) ) ;
#118 = CARTESIAN_POINT ( 'NONE',  ( 40.00000000000000000, 40.00000000000000000, 0.0000000000000000000 ) ) ;
#119 = PLANE ( 'NONE',  #209 ) ;
#120 = EDGE_LOOP ( 'NONE', ( #207, #176, #35, #59 ) ) ;
#121 = LOCAL_TIME ( 12, 28, 14.00000000000000000, #175 ) ;
#122 = PRODUCT_DEFINITION ( 'UNKNOWN', '', #63, #297 ) ;
#123 = DIRECTION ( 'NONE',  ( 0.0000000000000000000, 0.0000000000000000000, 1.000000000000000000 ) ) ;
#124 = EDGE_LOOP ( 'NONE', ( #55, #129, #295, #283 ) ) ;
#125 = ORIENTED_EDGE ( 'NONE', *, *, #83, .T. ) ;
#126 = CC_DESIGN_PERSON_AND_ORGANIZATION_ASSIGNMENT ( #230, #305, ( #311 ) ) ;
#127 = PLANE ( 'NONE',  #261 ) ;
#128 = DIRECTION ( 'NONE',  ( -0.0000000000000000000, -0.0000000000000000000, -1.000000000000000000 ) ) ;
#129 = ORIENTED_EDGE ( 'NONE', *, *, #236, .F. ) ;
#130 = CARTESIAN_POINT ( 'NONE',  ( 40.00000000000000000, 40.00000000000000000, 40.00000000000000000 ) ) ;
#131 = PLANE ( 'NONE',  #178 ) ;
#132 = LINE ( 'NONE', #20, #47 ) ;
#133 = EDGE_LOOP ( 'NONE', ( #163, #255, #271, #290 ) ) ;
#134 = CARTESIAN_POINT ( 'NONE',  ( 0.0000000000000000000, 40.00000000000000000, 40.00000000000000000 ) ) ;
#135 = AXIS2_PLACEMENT_3D ( 'NONE', #77, #169, #110 ) ;
#136 = CARTESIAN_POINT ( 'NONE',  ( 39.99999999999999300, 3.673940397442059200E-015, 0.0000000000000000000 ) ) ;
#137 = DIRECTION ( 'NONE',  ( -0.7071067811865474600, -0.7071067811865474600, 0.0000000000000000000 ) ) ;
#138 = DIRECTION ( 'NONE',  ( -1.000000000000000000, 1.734723475976807600E-016, 0.0000000000000000000 ) ) ;
#139 = VECTOR ( 'NONE', #70, 1000.000000000000000 ) ;
#140 = DATE_AND_TIME ( #256, #310 ) ;
#141 = EDGE_CURVE ( 'NONE', #93, #284, #9, .T. ) ;
#142 = AXIS2_PLACEMENT_3D ( 'NONE', #49, #241, #308 ) ;
#143 = PLANE ( 'NONE',  #208 ) ;
#144 = DIRECTION ( 'NONE',  ( 0.0000000000000000000, -0.0000000000000000000, -1.000000000000000000 ) ) ;
#145 = CARTESIAN_POINT ( 'NONE',  ( 0.0000000000000000000, 0.0000000000000000000, 40.00000000000000000 ) ) ;
#146 = ADVANCED_FACE ( 'NONE', ( #206 ), #143, .F. ) ;
#147 = CC_DESIGN_APPROVAL ( #13, ( #38 ) ) ;
#148 = SHAPE_DEFINITION_REPRESENTATION ( #282, #51 ) ;
#149 = CARTESIAN_POINT ( 'NONE',  ( 0.0000000000000000000, 0.0000000000000000000, 40.00000000000000000 ) ) ;
#150 = CARTESIAN_POINT ( 'NONE',  ( 39.99999999999999300, 3.673940397442059200E-015, 0.0000000000000000000 ) ) ;
#151 = ORIENTED_EDGE ( 'NONE', *, *, #247, .F. ) ;
#152 = ORIENTED_EDGE ( 'NONE', *, *, #301, .T. ) ;
#153 = CARTESIAN_POINT ( 'NONE',  ( 0.0000000000000000000, 0.0000000000000000000, 40.00000000000000000 ) ) ;
#154 = ORIENTED_EDGE ( 'NONE', *, *, #252, .T. ) ;
#155 = VECTOR ( 'NONE', #106, 1000.000000000000000 ) ;
#156 = CALENDAR_DATE ( 2014, 5, 6 ) ;
#157 = FACE_OUTER_BOUND ( 'NONE', #53, .T. ) ;
#158 = APPROVAL_DATE_TIME ( #299, #61 ) ;
#159 = CARTESIAN_POINT ( 'NONE',  ( 40.00000000000000000, 40.00000000000000000, 40.00000000000000000 ) ) ;
#160 = CARTESIAN_POINT ( 'NONE',  ( 0.0000000000000000000, 0.0000000000000000000, 40.00000000000000000 ) ) ;
#161 = DIRECTION ( 'NONE',  ( 0.7071067811865474600, 0.7071067811865474600, -0.0000000000000000000 ) ) ;
#162 = PLANE ( 'NONE',  #219 ) ;
#163 = ORIENTED_EDGE ( 'NONE', *, *, #141, .T. ) ;
#164 = APPROVAL_DATE_TIME ( #26, #103 ) ;
#165 = APPROVAL_PERSON_ORGANIZATION ( #228, #103, #266 ) ;
#166 = VERTEX_POINT ( 'NONE', #134 ) ;
#167 = MANIFOLD_SOLID_BREP ( 'Boss-Extrude1', #193 ) ;
#168 = ADVANCED_FACE ( 'NONE', ( #16 ), #127, .T. ) ;
#169 = DIRECTION ( 'NONE',  ( 0.0000000000000000000, 0.0000000000000000000, 1.000000000000000000 ) ) ;
#170 = VERTEX_POINT ( 'NONE', #150 ) ;
#171 = ORGANIZATION ( 'UNSPECIFIED', 'UNSPECIFIED', '' ) ;
#172 = CARTESIAN_POINT ( 'NONE',  ( 0.0000000000000000000, 0.0000000000000000000, 40.00000000000000000 ) ) ;
#173 = DATE_AND_TIME ( #156, #121 ) ;
#174 = VECTOR ( 'NONE', #198, 1000.000000000000000 ) ;
#175 = COORDINATED_UNIVERSAL_TIME_OFFSET ( 7, 0, .BEHIND. ) ;
#176 = ORIENTED_EDGE ( 'NONE', *, *, #89, .F. ) ;
#177 = DIRECTION ( 'NONE',  ( 0.7071067811865475700, -0.7071067811865475700, 0.0000000000000000000 ) ) ;
#178 = AXIS2_PLACEMENT_3D ( 'NONE', #36, #37, #43 ) ;
#179 = LINE ( 'NONE', #28, #79 ) ;
#180 = PERSON_AND_ORGANIZATION ( #15, #171 ) ;
#181 = VECTOR ( 'NONE', #128, 1000.000000000000000 ) ;
#182 = DIRECTION ( 'NONE',  ( 1.000000000000000000, 0.0000000000000000000, -0.0000000000000000000 ) ) ;
#183 = LINE ( 'NONE', #302, #181 ) ;
#184 = COORDINATED_UNIVERSAL_TIME_OFFSET ( 7, 0, .BEHIND. ) ;
#185 = DIRECTION ( 'NONE',  ( -0.0000000000000000000, -0.0000000000000000000, -1.000000000000000000 ) ) ;
#186 = DIRECTION ( 'NONE',  ( -0.7071067811865474600, -0.7071067811865474600, -0.0000000000000000000 ) ) ;
#187 = LOCAL_TIME ( 12, 28, 14.00000000000000000, #203 ) ;
#188 = PERSON_AND_ORGANIZATION ( #15, #171 ) ;
#189 =( GEOMETRIC_REPRESENTATION_CONTEXT ( 3 ) GLOBAL_UNCERTAINTY_ASSIGNED_CONTEXT ( ( #115 ) ) GLOBAL_UNIT_ASSIGNED_CONTEXT ( ( #45, #289, #1 ) ) REPRESENTATION_CONTEXT ( 'NONE', 'WORKASPACE' ) );
#190 = CARTESIAN_POINT ( 'NONE',  ( 0.0000000000000000000, 0.0000000000000000000, 0.0000000000000000000 ) ) ;
#191 = ADVANCED_FACE ( 'NONE', ( #99 ), #78, .F. ) ;
#192 = AXIS2_PLACEMENT_3D ( 'NONE', #4, #7, #10 ) ;
#193 = CLOSED_SHELL ( 'NONE', ( #146, #44, #69, #307, #253 ) ) ;
#194 = APPROVAL_PERSON_ORGANIZATION ( #188, #13, #25 ) ;
#195 = EDGE_CURVE ( 'NONE', #233, #75, #245, .T. ) ;
#196 = CARTESIAN_POINT ( 'NONE',  ( 0.0000000000000000000, 0.0000000000000000000, 0.0000000000000000000 ) ) ;
#197 = FACE_OUTER_BOUND ( 'NONE', #107, .T. ) ;
#198 = DIRECTION ( 'NONE',  ( -0.0000000000000000000, -0.0000000000000000000, -1.000000000000000000 ) ) ;
#199 = CARTESIAN_POINT ( 'NONE',  ( 40.00000000000000000, 40.00000000000000000, 40.00000000000000000 ) ) ;
#200 = EDGE_LOOP ( 'NONE', ( #217, #65, #151, #262 ) ) ;
#201 = COORDINATED_UNIVERSAL_TIME_OFFSET ( 7, 0, .BEHIND. ) ;
#202 = APPLICATION_CONTEXT ( 'configuration controlled 3d designs of mechanical parts and assemblies' ) ;
#203 = COORDINATED_UNIVERSAL_TIME_OFFSET ( 7, 0, .BEHIND. ) ;
#204 = ORIENTED_EDGE ( 'NONE', *, *, #244, .F. ) ;
#205 = DIRECTION ( 'NONE',  ( -0.7071067811865475700, 0.7071067811865475700, 0.0000000000000000000 ) ) ;
#206 = FACE_OUTER_BOUND ( 'NONE', #124, .T. ) ;
#207 = ORIENTED_EDGE ( 'NONE', *, *, #306, .T. ) ;
#208 = AXIS2_PLACEMENT_3D ( 'NONE', #159, #205, #137 ) ;
#209 = AXIS2_PLACEMENT_3D ( 'NONE', #101, #312, #144 ) ;
#210 = VECTOR ( 'NONE', #161, 1000.000000000000100 ) ;
#211 = DIRECTION ( 'NONE',  ( 0.7071067811865474600, 0.7071067811865474600, -0.0000000000000000000 ) ) ;
#212 = ADVANCED_FACE ( 'NONE', ( #229 ), #214, .F. ) ;
#213 = AXIS2_PLACEMENT_3D ( 'NONE', #196, #315, #54 ) ;
#214 = PLANE ( 'NONE',  #227 ) ;
#215 = DIRECTION ( 'NONE',  ( -0.7071067811865474600, -0.7071067811865474600, -0.0000000000000000000 ) ) ;
#216 = ORIENTED_EDGE ( 'NONE', *, *, #195, .F. ) ;
#217 = ORIENTED_EDGE ( 'NONE', *, *, #195, .T. ) ;
#218 = MANIFOLD_SOLID_BREP ( 'Boss-Extrude2', #22 ) ;
#219 = AXIS2_PLACEMENT_3D ( 'NONE', #318, #72, #39 ) ;
#220 = LINE ( 'NONE', #316, #87 ) ;
#221 = VERTEX_POINT ( 'NONE', #160 ) ;
#222 = DIRECTION ( 'NONE',  ( -0.0000000000000000000, -0.0000000000000000000, -1.000000000000000000 ) ) ;
#223 = EDGE_LOOP ( 'NONE', ( #303, #216, #88 ) ) ;
#224 = FACE_OUTER_BOUND ( 'NONE', #133, .T. ) ;
#225 = PLANE ( 'NONE',  #135 ) ;
#226 = VECTOR ( 'NONE', #268, 1000.000000000000000 ) ;
#227 = AXIS2_PLACEMENT_3D ( 'NONE', #153, #177, #82 ) ;
#228 = PERSON_AND_ORGANIZATION ( #15, #171 ) ;
#229 = FACE_OUTER_BOUND ( 'NONE', #200, .T. ) ;
#230 = PERSON_AND_ORGANIZATION ( #15, #171 ) ;
#231 = CARTESIAN_POINT ( 'NONE',  ( 0.0000000000000000000, 0.0000000000000000000, 0.0000000000000000000 ) ) ;
#232 = EDGE_CURVE ( 'NONE', #221, #75, #251, .T. ) ;
#233 = VERTEX_POINT ( 'NONE', #90 ) ;
#234 = CC_DESIGN_SECURITY_CLASSIFICATION ( #38, ( #63 ) ) ;
#235 = ORIENTED_EDGE ( 'NONE', *, *, #232, .T. ) ;
#236 = EDGE_CURVE ( 'NONE', #264, #40, #46, .T. ) ;
#237 = EDGE_CURVE ( 'NONE', #284, #40, #112, .T. ) ;
#238 = PRODUCT_RELATED_PRODUCT_CATEGORY ( 'detail', '', ( #311 ) ) ;
#239 = LINE ( 'NONE', #130, #265 ) ;
#240 = DATE_TIME_ROLE ( 'classification_date' ) ;
#241 = DIRECTION ( 'NONE',  ( 0.0000000000000000000, 0.0000000000000000000, 1.000000000000000000 ) ) ;
#242 = LINE ( 'NONE', #98, #257 ) ;
#243 = EDGE_CURVE ( 'NONE', #264, #166, #220, .T. ) ;
#244 = EDGE_CURVE ( 'NONE', #40, #93, #179, .T. ) ;
#245 = LINE ( 'NONE', #190, #309 ) ;
#246 = EDGE_LOOP ( 'NONE', ( #154, #100, #29, #235 ) ) ;
#247 = EDGE_CURVE ( 'NONE', #12, #221, #18, .T. ) ;
#248 = VECTOR ( 'NONE', #222, 1000.000000000000000 ) ;
#249 = CARTESIAN_POINT ( 'NONE',  ( 40.00000000000000000, 40.00000000000000000, 0.0000000000000000000 ) ) ;
#250 = ORIENTED_EDGE ( 'NONE', *, *, #243, .F. ) ;
#251 = LINE ( 'NONE', #149, #174 ) ;
#252 = EDGE_CURVE ( 'NONE', #75, #170, #27, .T. ) ;
#253 = ADVANCED_FACE ( 'NONE', ( #286 ), #104, .T. ) ;
#254 = AXIS2_PLACEMENT_3D ( 'NONE', #58, #138, #280 ) ;
#255 = ORIENTED_EDGE ( 'NONE', *, *, #68, .F. ) ;
#256 = CALENDAR_DATE ( 2014, 5, 6 ) ;
#257 = VECTOR ( 'NONE', #109, 1000.000000000000000 ) ;
#258 = VERTEX_POINT ( 'NONE', #114 ) ;
#259 = LINE ( 'NONE', #105, #248 ) ;
#260 = APPLICATION_CONTEXT ( 'configuration controlled 3d designs of mechanical parts and assemblies' ) ;
#261 = AXIS2_PLACEMENT_3D ( 'NONE', #116, #123, #182 ) ;
#262 = ORIENTED_EDGE ( 'NONE', *, *, #89, .T. ) ;
#263 = LOCAL_TIME ( 12, 28, 14.00000000000000000, #201 ) ;
#264 = VERTEX_POINT ( 'NONE', #5 ) ;
#265 = VECTOR ( 'NONE', #211, 1000.000000000000100 ) ;
#266 = APPROVAL_ROLE ( '' ) ;
#267 = PERSON_AND_ORGANIZATION_ROLE ( 'creator' ) ;
#268 = DIRECTION ( 'NONE',  ( -0.0000000000000000000, -0.0000000000000000000, -1.000000000000000000 ) ) ;
#269 = DATE_TIME_ROLE ( 'creation_date' ) ;
#270 = APPROVAL_STATUS ( 'not_yet_approved' ) ;
#271 = ORIENTED_EDGE ( 'NONE', *, *, #83, .F. ) ;
#272 = ORIENTED_EDGE ( 'NONE', *, *, #247, .T. ) ;
#273 = APPROVAL_ROLE ( '' ) ;
#274 = CALENDAR_DATE ( 2014, 5, 6 ) ;
#275 = PERSON_AND_ORGANIZATION_ROLE ( 'creator' ) ;
#276 = PERSON_AND_ORGANIZATION_ROLE ( 'design_supplier' ) ;
#277 = VECTOR ( 'NONE', #24, 1000.000000000000000 ) ;
#278 = LINE ( 'NONE', #145, #8 ) ;
#279 = ADVANCED_FACE ( 'NONE', ( #84 ), #3, .F. ) ;
#280 = DIRECTION ( 'NONE',  ( -1.734723475976807600E-016, -1.000000000000000000, 0.0000000000000000000 ) ) ;
#281 = SECURITY_CLASSIFICATION_LEVEL ( 'unclassified' ) ;
#282 = PRODUCT_DEFINITION_SHAPE ( 'NONE', 'NONE',  #122 ) ;
#283 = ORIENTED_EDGE ( 'NONE', *, *, #68, .T. ) ;
#284 = VERTEX_POINT ( 'NONE', #6 ) ;
#285 = PERSON_AND_ORGANIZATION_ROLE ( 'classification_officer' ) ;
#286 = FACE_OUTER_BOUND ( 'NONE', #11, .T. ) ;
#287 = DATE_AND_TIME ( #274, #263 ) ;
#288 = APPROVAL_DATE_TIME ( #287, #13 ) ;
#289 =( NAMED_UNIT ( * ) PLANE_ANGLE_UNIT ( ) SI_UNIT ( $, .RADIAN. ) );
#290 = ORIENTED_EDGE ( 'NONE', *, *, #86, .T. ) ;
#291 = VERTEX_POINT ( 'NONE', #19 ) ;
#292 = CARTESIAN_POINT ( 'NONE',  ( 0.0000000000000000000, 0.0000000000000000000, 0.0000000000000000000 ) ) ;
#293 = CARTESIAN_POINT ( 'NONE',  ( 0.0000000000000000000, 40.00000000000000000, 0.0000000000000000000 ) ) ;
#294 = ORIENTED_EDGE ( 'NONE', *, *, #86, .F. ) ;
#295 = ORIENTED_EDGE ( 'NONE', *, *, #319, .F. ) ;
#296 = APPLICATION_PROTOCOL_DEFINITION ( 'international standard', 'config_control_design', 1994, #260 ) ;
#297 = DESIGN_CONTEXT ( 'detailed design', #260, 'design' ) ;
#298 = FACE_OUTER_BOUND ( 'NONE', #223, .T. ) ;
#299 = DATE_AND_TIME ( #41, #17 ) ;
#300 = APPLICATION_PROTOCOL_DEFINITION ( 'international standard', 'config_control_design', 1994, #202 ) ;
#301 = EDGE_CURVE ( 'NONE', #221, #258, #132, .T. ) ;
#302 = CARTESIAN_POINT ( 'NONE',  ( 0.0000000000000000000, 40.00000000000000000, 40.00000000000000000 ) ) ;
#303 = ORIENTED_EDGE ( 'NONE', *, *, #252, .F. ) ;
#304 = VECTOR ( 'NONE', #102, 1000.000000000000000 ) ;
#305 = PERSON_AND_ORGANIZATION_ROLE ( 'design_owner' ) ;
#306 = EDGE_CURVE ( 'NONE', #170, #233, #42, .T. ) ;
#307 = ADVANCED_FACE ( 'NONE', ( #157 ), #131, .F. ) ;
#308 = DIRECTION ( 'NONE',  ( 1.000000000000000000, 0.0000000000000000000, 0.0000000000000000000 ) ) ;
#309 = VECTOR ( 'NONE', #186, 1000.000000000000100 ) ;
#310 = LOCAL_TIME ( 12, 28, 14.00000000000000000, #314 ) ;
#311 = PRODUCT ( 'step_32506', 'step_32506', '', ( #67 ) ) ;
#312 = DIRECTION ( 'NONE',  ( 0.0000000000000000000, -1.000000000000000000, 0.0000000000000000000 ) ) ;
#313 = APPROVAL_PERSON_ORGANIZATION ( #80, #61, #273 ) ;
#314 = COORDINATED_UNIVERSAL_TIME_OFFSET ( 7, 0, .BEHIND. ) ;
#315 = DIRECTION ( 'NONE',  ( 0.0000000000000000000, 0.0000000000000000000, -1.000000000000000000 ) ) ;
#316 = CARTESIAN_POINT ( 'NONE',  ( 0.0000000000000000000, 40.00000000000000000, 40.00000000000000000 ) ) ;
#317 = DIRECTION ( 'NONE',  ( -0.0000000000000000000, -1.000000000000000000, -0.0000000000000000000 ) ) ;
#318 = CARTESIAN_POINT ( 'NONE',  ( 0.0000000000000000000, 0.0000000000000000000, 40.00000000000000000 ) ) ;
#319 = EDGE_CURVE ( 'NONE', #291, #264, #239, .T. ) ;
#320 = ORIENTED_EDGE ( 'NONE', *, *, #141, .F. ) ;
#321 = DIRECTION ( 'NONE',  ( -1.000000000000000000, -0.0000000000000000000, -0.0000000000000000000 ) ) ;
ENDSEC;
END-ISO-10303-21;
