ISO-10303-21;
HEADER;
FILE_DESCRIPTION (( 'STEP AP203' ),
    '1' );
FILE_NAME ('Web Model 34242_34245.step',
    '2017-06-05T13:28:46',
    ( '' ),
    ( '' ),
    'SwSTEP 2.0',
    'SolidWorks 2016',
    '' );
FILE_SCHEMA (( 'CONFIG_CONTROL_DESIGN' ));
ENDSEC;

DATA;
#1 = FACE_OUTER_BOUND ( 'NONE', #36, .T. ) ;
#2 = DIRECTION ( 'NONE',  ( 0.0000000000000000000, 0.0000000000000000000, 1.000000000000000000 ) ) ;
#3 = CARTESIAN_POINT ( 'NONE',  ( -12.50000000000000000, 1.530808498934191500E-015, -3.218171694768792600 ) ) ;
#4 = ORIENTED_EDGE ( 'NONE', *, *, #28, .T. ) ;
#5 = EDGE_LOOP ( 'NONE', ( #106, #4, #100, #16 ) ) ;
#6 = PERSON_AND_ORGANIZATION_ROLE ( 'design_owner' ) ;
#7 = CC_DESIGN_PERSON_AND_ORGANIZATION_ASSIGNMENT ( #67, #155, ( #160 ) ) ;
#8 = EDGE_LOOP ( 'NONE', ( #86, #99 ) ) ;
#9 = ADVANCED_FACE ( 'NONE', ( #1 ), #37, .T. ) ;
#10 = CYLINDRICAL_SURFACE ( 'NONE', #88, 12.50000000000000000 ) ;
#11 = APPROVAL_PERSON_ORGANIZATION ( #164, #139, #168 ) ;
#12 = CARTESIAN_POINT ( 'NONE',  ( -12.50000000000000000, 1.530808498934191500E-015, -3.109085847384396300 ) ) ;
#13 = VERTEX_POINT ( 'NONE', #80 ) ;
#14 = AXIS2_PLACEMENT_3D ( 'NONE', #15, #40, #107 ) ;
#15 = CARTESIAN_POINT ( 'NONE',  ( 0.0000000000000000000, 0.0000000000000000000, 0.0000000000000000000 ) ) ;
#16 = ORIENTED_EDGE ( 'NONE', *, *, #103, .F. ) ;
#17 =( GEOMETRIC_REPRESENTATION_CONTEXT ( 3 ) GLOBAL_UNCERTAINTY_ASSIGNED_CONTEXT ( ( #135 ) ) GLOBAL_UNIT_ASSIGNED_CONTEXT ( ( #57, #42, #170 ) ) REPRESENTATION_CONTEXT ( 'NONE', 'WORKASPACE' ) );
#18 = APPROVAL_DATE_TIME ( #131, #139 ) ;
#19 = COORDINATED_UNIVERSAL_TIME_OFFSET ( 5, 0, .BEHIND. ) ;
#20 = ORIENTED_EDGE ( 'NONE', *, *, #103, .T. ) ;
#21 = PERSON_AND_ORGANIZATION ( #98, #23 ) ;
#22 = ORIENTED_EDGE ( 'NONE', *, *, #28, .F. ) ;
#23 = ORGANIZATION ( 'UNSPECIFIED', 'UNSPECIFIED', '' ) ;
#24 = ORIENTED_EDGE ( 'NONE', *, *, #130, .T. ) ;
#25 = CARTESIAN_POINT ( 'NONE',  ( -12.50000000000000000, -25.00000000000000000, -3.327257542153189400 ) ) ;
#26 = LOCAL_TIME ( 9, 28, 46.00000000000000000, #157 ) ;
#27 = LINE ( 'NONE', #3, #44 ) ;
#28 = EDGE_CURVE ( 'NONE', #123, #72, #27, .T. ) ;
#29 = APPLICATION_CONTEXT ( 'configuration controlled 3d designs of mechanical parts and assemblies' ) ;
#30 = CARTESIAN_POINT ( 'NONE',  ( 12.50000000000000000, 0.0000000000000000000, -3.109085847384396300 ) ) ;
#31 = DIRECTION ( 'NONE',  ( 1.000000000000000000, 0.0000000000000000000, 0.0000000000000000000 ) ) ;
#32 = CALENDAR_DATE ( 2017, 5, 6 ) ;
#33 = PRODUCT_DEFINITION ( 'UNKNOWN', '', #115, #117 ) ;
#34 = ORIENTED_EDGE ( 'NONE', *, *, #39, .T. ) ;
#35 = VECTOR ( 'NONE', #163, 1000.000000000000000 ) ;
#36 = EDGE_LOOP ( 'NONE', ( #34, #24 ) ) ;
#37 = PLANE ( 'NONE',  #144 ) ;
#38 = COORDINATED_UNIVERSAL_TIME_OFFSET ( 5, 0, .BEHIND. ) ;
#39 = EDGE_CURVE ( 'NONE', #13, #123, #134, .T. ) ;
#40 = DIRECTION ( 'NONE',  ( 0.0000000000000000000, 0.0000000000000000000, 1.000000000000000000 ) ) ;
#41 = APPROVAL ( #55, 'UNSPECIFIED' ) ;
#42 =( NAMED_UNIT ( * ) PLANE_ANGLE_UNIT ( ) SI_UNIT ( $, .RADIAN. ) );
#43 = SECURITY_CLASSIFICATION_LEVEL ( 'unclassified' ) ;
#44 = VECTOR ( 'NONE', #118, 1000.000000000000000 ) ;
#45 = CC_DESIGN_APPROVAL ( #104, ( #160 ) ) ;
#46 = COORDINATED_UNIVERSAL_TIME_OFFSET ( 5, 0, .BEHIND. ) ;
#47 = CARTESIAN_POINT ( 'NONE',  ( 0.0000000000000000000, 0.0000000000000000000, -3.218171694768792600 ) ) ;
#48 = FACE_OUTER_BOUND ( 'NONE', #5, .T. ) ;
#49 = PRODUCT_RELATED_PRODUCT_CATEGORY ( 'detail', '', ( #84 ) ) ;
#50 = CARTESIAN_POINT ( 'NONE',  ( 0.0000000000000000000, 0.0000000000000000000, 0.0000000000000000000 ) ) ;
#51 = LOCAL_TIME ( 9, 28, 46.00000000000000000, #101 ) ;
#52 = CYLINDRICAL_SURFACE ( 'NONE', #62, 12.50000000000000000 ) ;
#53 = CARTESIAN_POINT ( 'NONE',  ( 0.0000000000000000000, 0.0000000000000000000, -3.218171694768792600 ) ) ;
#54 = DIRECTION ( 'NONE',  ( -0.0000000000000000000, -0.0000000000000000000, 1.000000000000000000 ) ) ;
#55 = APPROVAL_STATUS ( 'not_yet_approved' ) ;
#56 = CALENDAR_DATE ( 2017, 5, 6 ) ;
#57 =( LENGTH_UNIT ( ) NAMED_UNIT ( * ) SI_UNIT ( .MILLI., .METRE. ) );
#58 = SHAPE_DEFINITION_REPRESENTATION ( #124, #65 ) ;
#59 = CARTESIAN_POINT ( 'NONE',  ( 12.50000000000000500, 25.00000000000000000, -2.890914152615603700 ) ) ;
#60 = CC_DESIGN_PERSON_AND_ORGANIZATION_ASSIGNMENT ( #129, #6, ( #84 ) ) ;
#61 = ADVANCED_FACE ( 'NONE', ( #48 ), #10, .T. ) ;
#62 = AXIS2_PLACEMENT_3D ( 'NONE', #53, #54, #31 ) ;
#63 = LOCAL_TIME ( 9, 28, 46.00000000000000000, #46 ) ;
#64 = CARTESIAN_POINT ( 'NONE',  ( 12.50000000000000000, 0.0000000000000000000, 0.0000000000000000000 ) ) ;
#65 = ADVANCED_BREP_SHAPE_REPRESENTATION ( 'Web Model 34242_34245', ( #126, #68 ), #17 ) ;
#66 = CARTESIAN_POINT ( 'NONE',  ( 12.50000000000000000, -12.50000000000000000, 0.0000000000000000000 ) ) ;
#67 = PERSON_AND_ORGANIZATION ( #98, #23 ) ;
#68 = AXIS2_PLACEMENT_3D ( 'NONE', #156, #71, #153 ) ;
#69 = FACE_OUTER_BOUND ( 'NONE', #146, .T. ) ;
#70 = APPLICATION_CONTEXT ( 'configuration controlled 3d designs of mechanical parts and assemblies' ) ;
#71 = DIRECTION ( 'NONE',  ( 0.0000000000000000000, 0.0000000000000000000, 1.000000000000000000 ) ) ;
#72 = VERTEX_POINT ( 'NONE', #159 ) ;
#73 = APPROVAL_ROLE ( '' ) ;
#74 = DATE_AND_TIME ( #121, #174 ) ;
#75 = LOCAL_TIME ( 9, 28, 46.00000000000000000, #19 ) ;
#76 = CC_DESIGN_PERSON_AND_ORGANIZATION_ASSIGNMENT ( #21, #167, ( #33 ) ) ;
#77 = DIRECTION ( 'NONE',  ( 1.000000000000000000, 0.0000000000000000000, 0.0000000000000000000 ) ) ;
#78 = CARTESIAN_POINT ( 'NONE',  ( -12.50000000000000000, 1.530808498934191500E-015, -3.109085847384396300 ) ) ;
#79 = CARTESIAN_POINT ( 'NONE',  ( 12.50000000000000000, 0.0000000000000000000, -3.218171694768792600 ) ) ;
#80 = CARTESIAN_POINT ( 'NONE',  ( 12.50000000000000000, 0.0000000000000000000, -3.109085847384396300 ) ) ;
#81 = CC_DESIGN_APPROVAL ( #41, ( #33 ) ) ;
#82 = DIRECTION ( 'NONE',  ( 0.0000000000000000000, 0.9999619230641713100, 0.008726535498366843100 ) ) ;
#83 =( BOUNDED_CURVE ( )  B_SPLINE_CURVE ( 3, ( #78, #105, #59, #30 ),
 .UNSPECIFIED., .F., .T. ) 
 B_SPLINE_CURVE_WITH_KNOTS ( ( 4, 4 ),
 ( 4.712388980384689700, 7.853981633974482800 ),
 .UNSPECIFIED. ) 
 CURVE ( )  GEOMETRIC_REPRESENTATION_ITEM ( )  RATIONAL_B_SPLINE_CURVE ( ( 1.000000000000000000, 0.3333333333333333700, 0.3333333333333333700, 1.000000000000000000 ) ) 
 REPRESENTATION_ITEM ( '' )  );
#84 = PRODUCT ( 'Web Model 34242_34245', 'Web Model 34242_34245', '', ( #151 ) ) ;
#85 = APPROVAL_DATE_TIME ( #74, #104 ) ;
#86 = ORIENTED_EDGE ( 'NONE', *, *, #92, .T. ) ;
#87 = CC_DESIGN_DATE_AND_TIME_ASSIGNMENT ( #89, #169, ( #160 ) ) ;
#88 = AXIS2_PLACEMENT_3D ( 'NONE', #47, #137, #138 ) ;
#89 = DATE_AND_TIME ( #161, #63 ) ;
#90 = APPROVAL_PERSON_ORGANIZATION ( #111, #41, #73 ) ;
#91 = VERTEX_POINT ( 'NONE', #64 ) ;
#92 = EDGE_CURVE ( 'NONE', #91, #72, #140, .T. ) ;
#93 = DIRECTION ( 'NONE',  ( 1.000000000000000000, 0.0000000000000000000, -0.0000000000000000000 ) ) ;
#94 = DIRECTION ( 'NONE',  ( 0.0000000000000000000, 0.0000000000000000000, 1.000000000000000000 ) ) ;
#95 = LINE ( 'NONE', #79, #35 ) ;
#96 = PERSON_AND_ORGANIZATION_ROLE ( 'design_supplier' ) ;
#97 = CC_DESIGN_DATE_AND_TIME_ASSIGNMENT ( #120, #154, ( #33 ) ) ;
#98 = PERSON ( 'UNSPECIFIED', 'UNSPECIFIED', 'UNSPECIFIED', ('UNSPECIFIED'), ('UNSPECIFIED'), ('UNSPECIFIED') ) ;
#99 = ORIENTED_EDGE ( 'NONE', *, *, #172, .T. ) ;
#100 = ORIENTED_EDGE ( 'NONE', *, *, #92, .F. ) ;
#101 = COORDINATED_UNIVERSAL_TIME_OFFSET ( 5, 0, .BEHIND. ) ;
#102 = CARTESIAN_POINT ( 'NONE',  ( 12.50000000000000500, -25.00000000000000000, -3.327257542153189400 ) ) ;
#103 = EDGE_CURVE ( 'NONE', #13, #91, #95, .T. ) ;
#104 = APPROVAL ( #128, 'UNSPECIFIED' ) ;
#105 = CARTESIAN_POINT ( 'NONE',  ( -12.50000000000001100, 25.00000000000000000, -2.890914152615603700 ) ) ;
#106 = ORIENTED_EDGE ( 'NONE', *, *, #130, .F. ) ;
#107 = DIRECTION ( 'NONE',  ( 1.000000000000000000, 0.0000000000000000000, 0.0000000000000000000 ) ) ;
#108 = APPROVAL_ROLE ( '' ) ;
#109 = PERSON_AND_ORGANIZATION_ROLE ( 'creator' ) ;
#110 = PERSON_AND_ORGANIZATION ( #98, #23 ) ;
#111 = PERSON_AND_ORGANIZATION ( #98, #23 ) ;
#112 = ADVANCED_FACE ( 'NONE', ( #165 ), #162, .T. ) ;
#113 = PERSON_AND_ORGANIZATION ( #98, #23 ) ;
#114 = CC_DESIGN_SECURITY_CLASSIFICATION ( #160, ( #115 ) ) ;
#115 = PRODUCT_DEFINITION_FORMATION_WITH_SPECIFIED_SOURCE ( 'ANY', '', #84, .NOT_KNOWN. ) ;
#116 = CARTESIAN_POINT ( 'NONE',  ( 12.50000000000000000, 0.0000000000000000000, -3.109085847384396300 ) ) ;
#117 = DESIGN_CONTEXT ( 'detailed design', #70, 'design' ) ;
#118 = DIRECTION ( 'NONE',  ( -0.0000000000000000000, -0.0000000000000000000, 1.000000000000000000 ) ) ;
#119 = DIRECTION ( 'NONE',  ( 0.0000000000000000000, 0.008726535498366844900, -0.9999619230641714200 ) ) ;
#120 = DATE_AND_TIME ( #56, #26 ) ;
#121 = CALENDAR_DATE ( 2017, 5, 6 ) ;
#122 = APPLICATION_PROTOCOL_DEFINITION ( 'international standard', 'config_control_design', 1994, #29 ) ;
#123 = VERTEX_POINT ( 'NONE', #12 ) ;
#124 = PRODUCT_DEFINITION_SHAPE ( 'NONE', 'NONE',  #33 ) ;
#125 = APPROVAL_STATUS ( 'not_yet_approved' ) ;
#126 = MANIFOLD_SOLID_BREP ( 'Cut-Extrude1', #143 ) ;
#127 = AXIS2_PLACEMENT_3D ( 'NONE', #50, #94, #77 ) ;
#128 = APPROVAL_STATUS ( 'not_yet_approved' ) ;
#129 = PERSON_AND_ORGANIZATION ( #98, #23 ) ;
#130 = EDGE_CURVE ( 'NONE', #123, #13, #83, .T. ) ;
#131 = DATE_AND_TIME ( #152, #51 ) ;
#132 = ADVANCED_FACE ( 'NONE', ( #69 ), #52, .T. ) ;
#133 = ORIENTED_EDGE ( 'NONE', *, *, #172, .F. ) ;
#134 =( BOUNDED_CURVE ( )  B_SPLINE_CURVE ( 3, ( #116, #102, #25, #150 ),
 .UNSPECIFIED., .F., .T. ) 
 B_SPLINE_CURVE_WITH_KNOTS ( ( 4, 4 ),
 ( 1.570796326794896600, 4.712388980384689700 ),
 .UNSPECIFIED. ) 
 CURVE ( )  GEOMETRIC_REPRESENTATION_ITEM ( )  RATIONAL_B_SPLINE_CURVE ( ( 1.000000000000000000, 0.3333333333333333700, 0.3333333333333333700, 1.000000000000000000 ) ) 
 REPRESENTATION_ITEM ( '' )  );
#135 = UNCERTAINTY_MEASURE_WITH_UNIT (LENGTH_MEASURE( 1.000000000000000100E-005 ), #57, 'distance_accuracy_value', 'NONE');
#136 = CC_DESIGN_APPROVAL ( #139, ( #115 ) ) ;
#137 = DIRECTION ( 'NONE',  ( -0.0000000000000000000, -0.0000000000000000000, 1.000000000000000000 ) ) ;
#138 = DIRECTION ( 'NONE',  ( 1.000000000000000000, 0.0000000000000000000, 0.0000000000000000000 ) ) ;
#139 = APPROVAL ( #125, 'UNSPECIFIED' ) ;
#140 = CIRCLE ( 'NONE', #127, 12.50000000000000000 ) ;
#141 = APPLICATION_PROTOCOL_DEFINITION ( 'international standard', 'config_control_design', 1994, #70 ) ;
#142 = CC_DESIGN_PERSON_AND_ORGANIZATION_ASSIGNMENT ( #110, #109, ( #115 ) ) ;
#143 = CLOSED_SHELL ( 'NONE', ( #61, #112, #132, #9 ) ) ;
#144 = AXIS2_PLACEMENT_3D ( 'NONE', #145, #119, #82 ) ;
#145 = CARTESIAN_POINT ( 'NONE',  ( 12.50000000000000000, 12.50000000000000000, -3.000000000000000000 ) ) ;
#146 = EDGE_LOOP ( 'NONE', ( #22, #148, #20, #133 ) ) ;
#147 = APPROVAL_DATE_TIME ( #166, #41 ) ;
#148 = ORIENTED_EDGE ( 'NONE', *, *, #39, .F. ) ;
#149 = CC_DESIGN_PERSON_AND_ORGANIZATION_ASSIGNMENT ( #171, #96, ( #115 ) ) ;
#150 = CARTESIAN_POINT ( 'NONE',  ( -12.50000000000000000, 1.530808498934191500E-015, -3.109085847384396300 ) ) ;
#151 = MECHANICAL_CONTEXT ( 'NONE', #29, 'mechanical' ) ;
#152 = CALENDAR_DATE ( 2017, 5, 6 ) ;
#153 = DIRECTION ( 'NONE',  ( 1.000000000000000000, 0.0000000000000000000, 0.0000000000000000000 ) ) ;
#154 = DATE_TIME_ROLE ( 'creation_date' ) ;
#155 = PERSON_AND_ORGANIZATION_ROLE ( 'classification_officer' ) ;
#156 = CARTESIAN_POINT ( 'NONE',  ( 0.0000000000000000000, 0.0000000000000000000, 0.0000000000000000000 ) ) ;
#157 = COORDINATED_UNIVERSAL_TIME_OFFSET ( 5, 0, .BEHIND. ) ;
#158 = APPROVAL_PERSON_ORGANIZATION ( #113, #104, #108 ) ;
#159 = CARTESIAN_POINT ( 'NONE',  ( -12.50000000000000000, 1.530808498934191500E-015, 0.0000000000000000000 ) ) ;
#160 = SECURITY_CLASSIFICATION ( '', '', #43 ) ;
#161 = CALENDAR_DATE ( 2017, 5, 6 ) ;
#162 = PLANE ( 'NONE',  #173 ) ;
#163 = DIRECTION ( 'NONE',  ( -0.0000000000000000000, -0.0000000000000000000, 1.000000000000000000 ) ) ;
#164 = PERSON_AND_ORGANIZATION ( #98, #23 ) ;
#165 = FACE_OUTER_BOUND ( 'NONE', #8, .T. ) ;
#166 = DATE_AND_TIME ( #32, #75 ) ;
#167 = PERSON_AND_ORGANIZATION_ROLE ( 'creator' ) ;
#168 = APPROVAL_ROLE ( '' ) ;
#169 = DATE_TIME_ROLE ( 'classification_date' ) ;
#170 =( NAMED_UNIT ( * ) SI_UNIT ( $, .STERADIAN. ) SOLID_ANGLE_UNIT ( ) );
#171 = PERSON_AND_ORGANIZATION ( #98, #23 ) ;
#172 = EDGE_CURVE ( 'NONE', #72, #91, #175, .T. ) ;
#173 = AXIS2_PLACEMENT_3D ( 'NONE', #66, #2, #93 ) ;
#174 = LOCAL_TIME ( 9, 28, 46.00000000000000000, #38 ) ;
#175 = CIRCLE ( 'NONE', #14, 12.50000000000000000 ) ;
ENDSEC;
END-ISO-10303-21;
