ISO-10303-21;
HEADER;
FILE_DESCRIPTION (( 'STEP AP203' ),
    '1' );
FILE_NAME ('Web Model 22036_22038.step',
    '2022-06-08T15:09:31',
    ( '' ),
    ( '' ),
    'SwSTEP 2.0',
    'SolidWorks 2021',
    '' );
FILE_SCHEMA (( 'CONFIG_CONTROL_DESIGN' ));
ENDSEC;

DATA;
#1 = CC_DESIGN_DATE_AND_TIME_ASSIGNMENT ( #104, #37, ( #150 ) ) ;
#2 = ORIENTED_EDGE ( 'NONE', *, *, #3, .F. ) ;
#3 = EDGE_CURVE ( 'NONE', #81, #29, #158, .T. ) ;
#4 = PERSON_AND_ORGANIZATION_ROLE ( 'classification_officer' ) ;
#5 = COORDINATED_UNIVERSAL_TIME_OFFSET ( 5, 0, .BEHIND. ) ;
#6 = DESIGN_CONTEXT ( 'detailed design', #148, 'design' ) ;
#7 = APPROVAL_ROLE ( '' ) ;
#8 = AXIS2_PLACEMENT_3D ( 'NONE', #13, #88, #169 ) ;
#9 = CC_DESIGN_PERSON_AND_ORGANIZATION_ASSIGNMENT ( #58, #4, ( #150 ) ) ;
#10 = CARTESIAN_POINT ( 'NONE',  ( 6.250000000000000000, 7.654042494670957606E-16, 0.2000000000000000111 ) ) ;
#11 = FACE_OUTER_BOUND ( 'NONE', #149, .T. ) ;
#12 = LOCAL_TIME ( 11, 9, 31.00000000000000000, #30 ) ;
#13 = CARTESIAN_POINT ( 'NONE',  ( 0.000000000000000000, 0.000000000000000000, 0.000000000000000000 ) ) ;
#14 = PRODUCT ( 'Web Model 22036_22038', 'Web Model 22036_22038', '', ( #91 ) ) ;
#15 = VECTOR ( 'NONE', #125, 1000.000000000000000 ) ;
#16 = ORIENTED_EDGE ( 'NONE', *, *, #108, .T. ) ;
#17 = SECURITY_CLASSIFICATION_LEVEL ( 'unclassified' ) ;
#18 = DATE_TIME_ROLE ( 'creation_date' ) ;
#19 = PERSON_AND_ORGANIZATION_ROLE ( 'design_supplier' ) ;
#20 = APPROVAL_ROLE ( '' ) ;
#21 = CC_DESIGN_SECURITY_CLASSIFICATION ( #150, ( #52 ) ) ;
#22 = CC_DESIGN_PERSON_AND_ORGANIZATION_ASSIGNMENT ( #101, #136, ( #34 ) ) ;
#23 =( LENGTH_UNIT ( ) NAMED_UNIT ( * ) SI_UNIT ( .MILLI., .METRE. ) );
#24 = CARTESIAN_POINT ( 'NONE',  ( 0.000000000000000000, 0.000000000000000000, 0.2000000000000000111 ) ) ;
#25 = CIRCLE ( 'NONE', #172, 6.250000000000000000 ) ;
#26 = ORIENTED_EDGE ( 'NONE', *, *, #168, .T. ) ;
#27 = DIRECTION ( 'NONE',  ( 1.000000000000000000, 0.000000000000000000, 0.000000000000000000 ) ) ;
#28 = CARTESIAN_POINT ( 'NONE',  ( 6.250000000000000000, 7.654042494670957606E-16, 0.2000000000000000111 ) ) ;
#29 = VERTEX_POINT ( 'NONE', #61 ) ;
#30 = COORDINATED_UNIVERSAL_TIME_OFFSET ( 5, 0, .BEHIND. ) ;
#31 = ORIENTED_EDGE ( 'NONE', *, *, #144, .T. ) ;
#32 = APPROVAL_PERSON_ORGANIZATION ( #175, #135, #20 ) ;
#33 = PERSON_AND_ORGANIZATION_ROLE ( 'design_owner' ) ;
#34 = PRODUCT_DEFINITION ( 'UNKNOWN', '', #52, #6 ) ;
#35 = AXIS2_PLACEMENT_3D ( 'NONE', #77, #171, #27 ) ;
#36 = APPROVAL_DATE_TIME ( #121, #135 ) ;
#37 = DATE_TIME_ROLE ( 'classification_date' ) ;
#38 = PERSON ( 'UNSPECIFIED', 'UNSPECIFIED', 'UNSPECIFIED', ('UNSPECIFIED'), ('UNSPECIFIED'), ('UNSPECIFIED') ) ;
#39 = LOCAL_TIME ( 11, 9, 31.00000000000000000, #93 ) ;
#40 = DIRECTION ( 'NONE',  ( 1.000000000000000000, 0.000000000000000000, -0.000000000000000000 ) ) ;
#41 = CLOSED_SHELL ( 'NONE', ( #160, #100, #124, #46 ) ) ;
#42 = DIRECTION ( 'NONE',  ( -0.000000000000000000, -0.000000000000000000, -1.000000000000000000 ) ) ;
#43 = APPROVAL ( #105, 'UNSPECIFIED' ) ;
#44 = DIRECTION ( 'NONE',  ( 0.000000000000000000, 0.000000000000000000, 1.000000000000000000 ) ) ;
#45 = CARTESIAN_POINT ( 'NONE',  ( 0.000000000000000000, 0.000000000000000000, 0.000000000000000000 ) ) ;
#46 = ADVANCED_FACE ( 'NONE', ( #11 ), #157, .F. ) ;
#47 = PERSON_AND_ORGANIZATION ( #38, #87 ) ;
#48 = LOCAL_TIME ( 11, 9, 31.00000000000000000, #134 ) ;
#49 = CALENDAR_DATE ( 2022, 8, 6 ) ;
#50 =( NAMED_UNIT ( * ) SI_UNIT ( $, .STERADIAN. ) SOLID_ANGLE_UNIT ( ) );
#51 = ORIENTED_EDGE ( 'NONE', *, *, #67, .F. ) ;
#52 = PRODUCT_DEFINITION_FORMATION_WITH_SPECIFIED_SOURCE ( 'ANY', '', #14, .NOT_KNOWN. ) ;
#53 = VERTEX_POINT ( 'NONE', #143 ) ;
#54 = LINE ( 'NONE', #85, #15 ) ;
#55 = MANIFOLD_SOLID_BREP ( 'Boss-Extrude1', #41 ) ;
#56 = ORIENTED_EDGE ( 'NONE', *, *, #168, .F. ) ;
#57 = APPROVAL_STATUS ( 'not_yet_approved' ) ;
#58 = PERSON_AND_ORGANIZATION ( #38, #87 ) ;
#59 = APPROVAL_DATE_TIME ( #164, #43 ) ;
#60 = AXIS2_PLACEMENT_3D ( 'NONE', #161, #79, #96 ) ;
#61 = CARTESIAN_POINT ( 'NONE',  ( -6.250000000000000000, 0.000000000000000000, 0.000000000000000000 ) ) ;
#62 = DIRECTION ( 'NONE',  ( -0.000000000000000000, -0.000000000000000000, -1.000000000000000000 ) ) ;
#63 =( NAMED_UNIT ( * ) PLANE_ANGLE_UNIT ( ) SI_UNIT ( $, .RADIAN. ) );
#64 = CC_DESIGN_PERSON_AND_ORGANIZATION_ASSIGNMENT ( #47, #118, ( #52 ) ) ;
#65 = ORIENTED_EDGE ( 'NONE', *, *, #138, .T. ) ;
#66 = CC_DESIGN_APPROVAL ( #43, ( #150 ) ) ;
#67 = EDGE_CURVE ( 'NONE', #155, #53, #83, .T. ) ;
#68 = CARTESIAN_POINT ( 'NONE',  ( 6.250000000000000000, 7.654042494670957606E-16, 0.000000000000000000 ) ) ;
#69 = ORIENTED_EDGE ( 'NONE', *, *, #67, .T. ) ;
#70 = CALENDAR_DATE ( 2022, 8, 6 ) ;
#71 = CC_DESIGN_PERSON_AND_ORGANIZATION_ASSIGNMENT ( #82, #19, ( #52 ) ) ;
#72 = APPROVAL_DATE_TIME ( #75, #127 ) ;
#73 = APPROVAL_ROLE ( '' ) ;
#74 = UNCERTAINTY_MEASURE_WITH_UNIT (LENGTH_MEASURE( 1.000000000000000082E-05 ), #23, 'distance_accuracy_value', 'NONE');
#75 = DATE_AND_TIME ( #80, #112 ) ;
#76 = DIRECTION ( 'NONE',  ( 0.000000000000000000, 0.000000000000000000, 1.000000000000000000 ) ) ;
#77 = CARTESIAN_POINT ( 'NONE',  ( 0.000000000000000000, 0.000000000000000000, 0.2000000000000000111 ) ) ;
#78 = LINE ( 'NONE', #10, #170 ) ;
#79 = DIRECTION ( 'NONE',  ( 0.000000000000000000, 0.000000000000000000, 1.000000000000000000 ) ) ;
#80 = CALENDAR_DATE ( 2022, 8, 6 ) ;
#81 = VERTEX_POINT ( 'NONE', #68 ) ;
#82 = PERSON_AND_ORGANIZATION ( #38, #87 ) ;
#83 = CIRCLE ( 'NONE', #151, 6.250000000000000000 ) ;
#84 = PERSON_AND_ORGANIZATION ( #38, #87 ) ;
#85 = CARTESIAN_POINT ( 'NONE',  ( -6.250000000000000000, 0.000000000000000000, 0.2000000000000000111 ) ) ;
#86 = DIRECTION ( 'NONE',  ( 1.000000000000000000, 0.000000000000000000, 0.000000000000000000 ) ) ;
#87 = ORGANIZATION ( 'UNSPECIFIED', 'UNSPECIFIED', '' ) ;
#88 = DIRECTION ( 'NONE',  ( 0.000000000000000000, 0.000000000000000000, 1.000000000000000000 ) ) ;
#89 = PLANE ( 'NONE',  #123 ) ;
#90 = DIRECTION ( 'NONE',  ( -1.000000000000000000, 0.000000000000000000, 0.000000000000000000 ) ) ;
#91 = MECHANICAL_CONTEXT ( 'NONE', #174, 'mechanical' ) ;
#92 = APPLICATION_PROTOCOL_DEFINITION ( 'international standard', 'config_control_design', 1994, #174 ) ;
#93 = COORDINATED_UNIVERSAL_TIME_OFFSET ( 5, 0, .BEHIND. ) ;
#94 = AXIS2_PLACEMENT_3D ( 'NONE', #98, #62, #90 ) ;
#95 = CARTESIAN_POINT ( 'NONE',  ( 0.000000000000000000, 0.000000000000000000, 0.2000000000000000111 ) ) ;
#96 = DIRECTION ( 'NONE',  ( 1.000000000000000000, 0.000000000000000000, 0.000000000000000000 ) ) ;
#97 = FACE_OUTER_BOUND ( 'NONE', #159, .T. ) ;
#98 = CARTESIAN_POINT ( 'NONE',  ( 0.000000000000000000, 0.000000000000000000, 0.2000000000000000111 ) ) ;
#99 = CC_DESIGN_DATE_AND_TIME_ASSIGNMENT ( #162, #18, ( #34 ) ) ;
#100 = ADVANCED_FACE ( 'NONE', ( #97 ), #113, .T. ) ;
#101 = PERSON_AND_ORGANIZATION ( #38, #87 ) ;
#102 = CC_DESIGN_APPROVAL ( #135, ( #52 ) ) ;
#103 = ADVANCED_BREP_SHAPE_REPRESENTATION ( 'Web Model 22036_22038', ( #55, #154 ), #166 ) ;
#104 = DATE_AND_TIME ( #49, #12 ) ;
#105 = APPROVAL_STATUS ( 'not_yet_approved' ) ;
#106 = CIRCLE ( 'NONE', #35, 6.250000000000000000 ) ;
#107 = DIRECTION ( 'NONE',  ( 1.000000000000000000, 0.000000000000000000, 0.000000000000000000 ) ) ;
#108 = EDGE_CURVE ( 'NONE', #53, #155, #106, .T. ) ;
#109 = CYLINDRICAL_SURFACE ( 'NONE', #94, 6.250000000000000000 ) ;
#110 = DIRECTION ( 'NONE',  ( 1.000000000000000000, 0.000000000000000000, 0.000000000000000000 ) ) ;
#111 = EDGE_LOOP ( 'NONE', ( #51, #65, #114, #146 ) ) ;
#112 = LOCAL_TIME ( 11, 9, 31.00000000000000000, #119 ) ;
#113 = CYLINDRICAL_SURFACE ( 'NONE', #141, 6.250000000000000000 ) ;
#114 = ORIENTED_EDGE ( 'NONE', *, *, #3, .T. ) ;
#115 = PERSON_AND_ORGANIZATION ( #38, #87 ) ;
#116 = CC_DESIGN_PERSON_AND_ORGANIZATION_ASSIGNMENT ( #115, #33, ( #14 ) ) ;
#117 = ORIENTED_EDGE ( 'NONE', *, *, #108, .F. ) ;
#118 = PERSON_AND_ORGANIZATION_ROLE ( 'creator' ) ;
#119 = COORDINATED_UNIVERSAL_TIME_OFFSET ( 5, 0, .BEHIND. ) ;
#120 = APPLICATION_PROTOCOL_DEFINITION ( 'international standard', 'config_control_design', 1994, #148 ) ;
#121 = DATE_AND_TIME ( #165, #48 ) ;
#122 = APPROVAL_PERSON_ORGANIZATION ( #147, #43, #73 ) ;
#123 = AXIS2_PLACEMENT_3D ( 'NONE', #129, #76, #40 ) ;
#124 = ADVANCED_FACE ( 'NONE', ( #145 ), #89, .T. ) ;
#125 = DIRECTION ( 'NONE',  ( -0.000000000000000000, -0.000000000000000000, -1.000000000000000000 ) ) ;
#126 = DIRECTION ( 'NONE',  ( -1.000000000000000000, 0.000000000000000000, 0.000000000000000000 ) ) ;
#127 = APPROVAL ( #133, 'UNSPECIFIED' ) ;
#128 = DIRECTION ( 'NONE',  ( -0.000000000000000000, -0.000000000000000000, -1.000000000000000000 ) ) ;
#129 = CARTESIAN_POINT ( 'NONE',  ( 0.000000000000000000, 0.000000000000000000, 0.2000000000000000111 ) ) ;
#130 = EDGE_LOOP ( 'NONE', ( #16, #69 ) ) ;
#131 = DIRECTION ( 'NONE',  ( 0.000000000000000000, 0.000000000000000000, 1.000000000000000000 ) ) ;
#132 = PRODUCT_DEFINITION_SHAPE ( 'NONE', 'NONE',  #34 ) ;
#133 = APPROVAL_STATUS ( 'not_yet_approved' ) ;
#134 = COORDINATED_UNIVERSAL_TIME_OFFSET ( 5, 0, .BEHIND. ) ;
#135 = APPROVAL ( #57, 'UNSPECIFIED' ) ;
#136 = PERSON_AND_ORGANIZATION_ROLE ( 'creator' ) ;
#137 = SHAPE_DEFINITION_REPRESENTATION ( #132, #103 ) ;
#138 = EDGE_CURVE ( 'NONE', #155, #81, #78, .T. ) ;
#139 = LOCAL_TIME ( 11, 9, 31.00000000000000000, #5 ) ;
#140 = FACE_OUTER_BOUND ( 'NONE', #111, .T. ) ;
#141 = AXIS2_PLACEMENT_3D ( 'NONE', #95, #42, #126 ) ;
#142 = DIRECTION ( 'NONE',  ( 0.000000000000000000, 0.000000000000000000, 1.000000000000000000 ) ) ;
#143 = CARTESIAN_POINT ( 'NONE',  ( -6.250000000000000000, 0.000000000000000000, 0.2000000000000000111 ) ) ;
#144 = EDGE_CURVE ( 'NONE', #53, #29, #54, .T. ) ;
#145 = FACE_OUTER_BOUND ( 'NONE', #130, .T. ) ;
#146 = ORIENTED_EDGE ( 'NONE', *, *, #144, .F. ) ;
#147 = PERSON_AND_ORGANIZATION ( #38, #87 ) ;
#148 = APPLICATION_CONTEXT ( 'configuration controlled 3d designs of mechanical parts and assemblies' ) ;
#149 = EDGE_LOOP ( 'NONE', ( #56, #2 ) ) ;
#150 = SECURITY_CLASSIFICATION ( '', '', #17 ) ;
#151 = AXIS2_PLACEMENT_3D ( 'NONE', #24, #142, #110 ) ;
#152 = PRODUCT_RELATED_PRODUCT_CATEGORY ( 'detail', '', ( #14 ) ) ;
#153 = CALENDAR_DATE ( 2022, 8, 6 ) ;
#154 = AXIS2_PLACEMENT_3D ( 'NONE', #45, #131, #107 ) ;
#155 = VERTEX_POINT ( 'NONE', #28 ) ;
#156 = CC_DESIGN_APPROVAL ( #127, ( #34 ) ) ;
#157 = PLANE ( 'NONE',  #8 ) ;
#158 = CIRCLE ( 'NONE', #60, 6.250000000000000000 ) ;
#159 = EDGE_LOOP ( 'NONE', ( #173, #117, #31, #26 ) ) ;
#160 = ADVANCED_FACE ( 'NONE', ( #140 ), #109, .T. ) ;
#161 = CARTESIAN_POINT ( 'NONE',  ( 0.000000000000000000, 0.000000000000000000, 0.000000000000000000 ) ) ;
#162 = DATE_AND_TIME ( #153, #139 ) ;
#163 = APPROVAL_PERSON_ORGANIZATION ( #84, #127, #7 ) ;
#164 = DATE_AND_TIME ( #70, #39 ) ;
#165 = CALENDAR_DATE ( 2022, 8, 6 ) ;
#166 =( GEOMETRIC_REPRESENTATION_CONTEXT ( 3 ) GLOBAL_UNCERTAINTY_ASSIGNED_CONTEXT ( ( #74 ) ) GLOBAL_UNIT_ASSIGNED_CONTEXT ( ( #23, #63, #50 ) ) REPRESENTATION_CONTEXT ( 'NONE', 'WORKASPACE' ) );
#167 = CARTESIAN_POINT ( 'NONE',  ( 0.000000000000000000, 0.000000000000000000, 0.000000000000000000 ) ) ;
#168 = EDGE_CURVE ( 'NONE', #29, #81, #25, .T. ) ;
#169 = DIRECTION ( 'NONE',  ( 1.000000000000000000, 0.000000000000000000, -0.000000000000000000 ) ) ;
#170 = VECTOR ( 'NONE', #128, 1000.000000000000000 ) ;
#171 = DIRECTION ( 'NONE',  ( 0.000000000000000000, 0.000000000000000000, 1.000000000000000000 ) ) ;
#172 = AXIS2_PLACEMENT_3D ( 'NONE', #167, #44, #86 ) ;
#173 = ORIENTED_EDGE ( 'NONE', *, *, #138, .F. ) ;
#174 = APPLICATION_CONTEXT ( 'configuration controlled 3d designs of mechanical parts and assemblies' ) ;
#175 = PERSON_AND_ORGANIZATION ( #38, #87 ) ;
ENDSEC;
END-ISO-10303-21;
