ISO-10303-21;
HEADER;
FILE_DESCRIPTION (( 'STEP AP203' ),
    '1' );
FILE_NAME ('Web Model 46459_47609.step',
    '2018-03-15T18:33:25',
    ( '' ),
    ( '' ),
    'SwSTEP 2.0',
    'SolidWorks 2016',
    '' );
FILE_SCHEMA (( 'CONFIG_CONTROL_DESIGN' ));
ENDSEC;

DATA;
#1 = ORGANIZATION ( 'UNSPECIFIED', 'UNSPECIFIED', '' ) ;
#2 = DIRECTION ( 'NONE',  ( 0.0000000000000000000, -2.048885995248197400E-016, -1.000000000000000000 ) ) ;
#3 = CARTESIAN_POINT ( 'NONE',  ( 0.7500000000000000000, 12.69999999999999800, 12.69999999999999900 ) ) ;
#4 = COORDINATED_UNIVERSAL_TIME_OFFSET ( 5, 0, .BEHIND. ) ;
#5 = PLANE ( 'NONE',  #145 ) ;
#6 = EDGE_CURVE ( 'NONE', #126, #178, #117, .T. ) ;
#7 = PERSON_AND_ORGANIZATION ( #193, #1 ) ;
#8 = CC_DESIGN_PERSON_AND_ORGANIZATION_ASSIGNMENT ( #35, #118, ( #144 ) ) ;
#9 = EDGE_CURVE ( 'NONE', #91, #131, #79, .T. ) ;
#10 = VECTOR ( 'NONE', #34, 1000.000000000000000 ) ;
#11 = COORDINATED_UNIVERSAL_TIME_OFFSET ( 5, 0, .BEHIND. ) ;
#12 = AXIS2_PLACEMENT_3D ( 'NONE', #94, #151, #154 ) ;
#13 = DIRECTION ( 'NONE',  ( -0.0000000000000000000, -0.0000000000000000000, 1.000000000000000000 ) ) ;
#14 = ORIENTED_EDGE ( 'NONE', *, *, #161, .T. ) ;
#15 = DIRECTION ( 'NONE',  ( 0.0000000000000000000, -1.000000000000000000, 2.048885995248197400E-016 ) ) ;
#16 = AXIS2_PLACEMENT_3D ( 'NONE', #168, #136, #46 ) ;
#17 = FACE_OUTER_BOUND ( 'NONE', #175, .T. ) ;
#18 = LINE ( 'NONE', #110, #210 ) ;
#19 = ORIENTED_EDGE ( 'NONE', *, *, #123, .T. ) ;
#20 = EDGE_CURVE ( 'NONE', #162, #82, #18, .T. ) ;
#21 = APPROVAL_ROLE ( '' ) ;
#22 = PERSON_AND_ORGANIZATION ( #193, #1 ) ;
#23 = APPROVAL ( #208, 'UNSPECIFIED' ) ;
#24 = APPROVAL ( #142, 'UNSPECIFIED' ) ;
#25 = UNCERTAINTY_MEASURE_WITH_UNIT (LENGTH_MEASURE( 1.000000000000000100E-005 ), #155, 'distance_accuracy_value', 'NONE');
#26 = CC_DESIGN_DATE_AND_TIME_ASSIGNMENT ( #230, #174, ( #144 ) ) ;
#27 = LOCAL_TIME ( 14, 33, 25.00000000000000000, #4 ) ;
#28 = EDGE_CURVE ( 'NONE', #91, #126, #214, .T. ) ;
#29 = ORIENTED_EDGE ( 'NONE', *, *, #6, .F. ) ;
#30 = DIRECTION ( 'NONE',  ( -1.000000000000000000, -0.0000000000000000000, -0.0000000000000000000 ) ) ;
#31 = ADVANCED_FACE ( 'NONE', ( #207 ), #93, .F. ) ;
#32 = DIRECTION ( 'NONE',  ( -1.000000000000000000, -0.0000000000000000000, -0.0000000000000000000 ) ) ;
#33 = ORIENTED_EDGE ( 'NONE', *, *, #123, .F. ) ;
#34 = DIRECTION ( 'NONE',  ( -1.000000000000000000, -0.0000000000000000000, -0.0000000000000000000 ) ) ;
#35 = PERSON_AND_ORGANIZATION ( #193, #1 ) ;
#36 = CARTESIAN_POINT ( 'NONE',  ( -0.7500000000000000000, 12.69999999999999800, 12.69999999999999900 ) ) ;
#37 = DIRECTION ( 'NONE',  ( 0.0000000000000000000, -0.0000000000000000000, -1.000000000000000000 ) ) ;
#38 = APPROVAL ( #101, 'UNSPECIFIED' ) ;
#39 = ORIENTED_EDGE ( 'NONE', *, *, #218, .T. ) ;
#40 = VECTOR ( 'NONE', #99, 1000.000000000000000 ) ;
#41 = APPROVAL_PERSON_ORGANIZATION ( #7, #23, #21 ) ;
#42 = PRODUCT_DEFINITION_FORMATION_WITH_SPECIFIED_SOURCE ( 'ANY', '', #176, .NOT_KNOWN. ) ;
#43 = PERSON_AND_ORGANIZATION_ROLE ( 'design_supplier' ) ;
#44 = CALENDAR_DATE ( 2018, 15, 3 ) ;
#45 = CC_DESIGN_APPROVAL ( #23, ( #42 ) ) ;
#46 = DIRECTION ( 'NONE',  ( 1.000000000000000000, 0.0000000000000000000, 0.0000000000000000000 ) ) ;
#47 = PERSON_AND_ORGANIZATION ( #193, #1 ) ;
#48 = VECTOR ( 'NONE', #112, 1000.000000000000000 ) ;
#49 = MANIFOLD_SOLID_BREP ( 'Boss-Extrude1', #95 ) ;
#50 = CC_DESIGN_APPROVAL ( #38, ( #81 ) ) ;
#51 = DATE_AND_TIME ( #56, #122 ) ;
#52 = DIRECTION ( 'NONE',  ( -1.000000000000000000, -0.0000000000000000000, -0.0000000000000000000 ) ) ;
#53 = ADVANCED_FACE ( 'NONE', ( #113 ), #236, .F. ) ;
#54 = ORIENTED_EDGE ( 'NONE', *, *, #9, .T. ) ;
#55 = DIRECTION ( 'NONE',  ( 0.0000000000000000000, -2.048885995248197400E-016, 1.000000000000000000 ) ) ;
#56 = CALENDAR_DATE ( 2018, 15, 3 ) ;
#57 = DIRECTION ( 'NONE',  ( 0.0000000000000000000, 1.000000000000000000, -2.048885995248197400E-016 ) ) ;
#58 = APPROVAL_DATE_TIME ( #213, #38 ) ;
#59 = EDGE_CURVE ( 'NONE', #131, #178, #107, .T. ) ;
#60 = PLANE ( 'NONE',  #106 ) ;
#61 = DIRECTION ( 'NONE',  ( 0.0000000000000000000, 0.0000000000000000000, -1.000000000000000000 ) ) ;
#62 = DIRECTION ( 'NONE',  ( 0.0000000000000000000, -1.000000000000000000, 0.0000000000000000000 ) ) ;
#63 = PERSON_AND_ORGANIZATION_ROLE ( 'classification_officer' ) ;
#64 = LINE ( 'NONE', #73, #200 ) ;
#65 = FACE_OUTER_BOUND ( 'NONE', #111, .T. ) ;
#66 = COORDINATED_UNIVERSAL_TIME_OFFSET ( 5, 0, .BEHIND. ) ;
#67 = PERSON_AND_ORGANIZATION ( #193, #1 ) ;
#68 = AXIS2_PLACEMENT_3D ( 'NONE', #71, #199, #75 ) ;
#69 = CARTESIAN_POINT ( 'NONE',  ( 0.7500000000000000000, 12.69999999999999800, -12.69999999999999900 ) ) ;
#70 = ORIENTED_EDGE ( 'NONE', *, *, #6, .T. ) ;
#71 = CARTESIAN_POINT ( 'NONE',  ( -0.7500000000000000000, 0.0000000000000000000, 0.0000000000000000000 ) ) ;
#72 = CARTESIAN_POINT ( 'NONE',  ( 0.7500000000000000000, 12.69999999999999800, -12.69999999999999900 ) ) ;
#73 = CARTESIAN_POINT ( 'NONE',  ( 0.7500000000000000000, -12.70000000000000100, -12.70000000000000500 ) ) ;
#74 = VECTOR ( 'NONE', #13, 1000.000000000000000 ) ;
#75 = DIRECTION ( 'NONE',  ( 0.0000000000000000000, 0.0000000000000000000, -1.000000000000000000 ) ) ;
#76 = CALENDAR_DATE ( 2018, 15, 3 ) ;
#77 = CARTESIAN_POINT ( 'NONE',  ( -0.7500000000000000000, 12.69999999999999800, 12.69999999999999900 ) ) ;
#78 = CARTESIAN_POINT ( 'NONE',  ( 0.7500000000000000000, -12.70000000000000100, 12.70000000000000500 ) ) ;
#79 = LINE ( 'NONE', #165, #48 ) ;
#80 = LOCAL_TIME ( 14, 33, 25.00000000000000000, #66 ) ;
#81 = SECURITY_CLASSIFICATION ( '', '', #119 ) ;
#82 = VERTEX_POINT ( 'NONE', #97 ) ;
#83 = LINE ( 'NONE', #201, #134 ) ;
#84 = CC_DESIGN_PERSON_AND_ORGANIZATION_ASSIGNMENT ( #22, #139, ( #42 ) ) ;
#85 = APPLICATION_CONTEXT ( 'configuration controlled 3d designs of mechanical parts and assemblies' ) ;
#86 = PERSON_AND_ORGANIZATION_ROLE ( 'design_owner' ) ;
#87 = SHAPE_DEFINITION_REPRESENTATION ( #228, #184 ) ;
#88 = EDGE_LOOP ( 'NONE', ( #14, #209, #227, #173 ) ) ;
#89 = PERSON_AND_ORGANIZATION ( #193, #1 ) ;
#90 = EDGE_CURVE ( 'NONE', #192, #91, #159, .T. ) ;
#91 = VERTEX_POINT ( 'NONE', #147 ) ;
#92 = CARTESIAN_POINT ( 'NONE',  ( -0.7500000000000000000, 12.69999999999999800, -12.69999999999999900 ) ) ;
#93 = PLANE ( 'NONE',  #68 ) ;
#94 = CARTESIAN_POINT ( 'NONE',  ( 0.7500000000000000000, 0.0000000000000000000, 0.0000000000000000000 ) ) ;
#95 = CLOSED_SHELL ( 'NONE', ( #216, #197, #53, #149, #129, #31 ) ) ;
#96 =( GEOMETRIC_REPRESENTATION_CONTEXT ( 3 ) GLOBAL_UNCERTAINTY_ASSIGNED_CONTEXT ( ( #25 ) ) GLOBAL_UNIT_ASSIGNED_CONTEXT ( ( #155, #171, #158 ) ) REPRESENTATION_CONTEXT ( 'NONE', 'WORKASPACE' ) );
#97 = CARTESIAN_POINT ( 'NONE',  ( -0.7500000000000000000, -12.70000000000000100, 12.70000000000000500 ) ) ;
#98 = APPROVAL_PERSON_ORGANIZATION ( #67, #38, #225 ) ;
#99 = DIRECTION ( 'NONE',  ( 0.0000000000000000000, -1.000000000000000000, 2.048885995248197400E-016 ) ) ;
#100 = EDGE_LOOP ( 'NONE', ( #120, #33, #143, #232 ) ) ;
#101 = APPROVAL_STATUS ( 'not_yet_approved' ) ;
#102 = APPLICATION_PROTOCOL_DEFINITION ( 'international standard', 'config_control_design', 1994, #190 ) ;
#103 = APPROVAL_ROLE ( '' ) ;
#104 = CALENDAR_DATE ( 2018, 15, 3 ) ;
#105 = ORIENTED_EDGE ( 'NONE', *, *, #90, .T. ) ;
#106 = AXIS2_PLACEMENT_3D ( 'NONE', #170, #222, #116 ) ;
#107 = LINE ( 'NONE', #130, #10 ) ;
#108 = CC_DESIGN_PERSON_AND_ORGANIZATION_ASSIGNMENT ( #226, #63, ( #81 ) ) ;
#109 = COORDINATED_UNIVERSAL_TIME_OFFSET ( 5, 0, .BEHIND. ) ;
#110 = CARTESIAN_POINT ( 'NONE',  ( 0.7500000000000000000, -12.70000000000000100, 12.70000000000000500 ) ) ;
#111 = EDGE_LOOP ( 'NONE', ( #137, #180, #105, #54 ) ) ;
#112 = DIRECTION ( 'NONE',  ( -0.0000000000000000000, -0.0000000000000000000, 1.000000000000000000 ) ) ;
#113 = FACE_OUTER_BOUND ( 'NONE', #156, .T. ) ;
#114 = DATE_AND_TIME ( #76, #183 ) ;
#115 = CARTESIAN_POINT ( 'NONE',  ( -0.7500000000000000000, 12.69999999999999800, -12.69999999999999900 ) ) ;
#116 = DIRECTION ( 'NONE',  ( 0.0000000000000000000, -0.0000000000000000000, 1.000000000000000000 ) ) ;
#117 = LINE ( 'NONE', #237, #74 ) ;
#118 = PERSON_AND_ORGANIZATION_ROLE ( 'creator' ) ;
#119 = SECURITY_CLASSIFICATION_LEVEL ( 'unclassified' ) ;
#120 = ORIENTED_EDGE ( 'NONE', *, *, #212, .T. ) ;
#121 = CC_DESIGN_SECURITY_CLASSIFICATION ( #81, ( #42 ) ) ;
#122 = LOCAL_TIME ( 14, 33, 25.00000000000000000, #109 ) ;
#123 = EDGE_CURVE ( 'NONE', #192, #124, #64, .T. ) ;
#124 = VERTEX_POINT ( 'NONE', #182 ) ;
#125 = ORIENTED_EDGE ( 'NONE', *, *, #9, .F. ) ;
#126 = VERTEX_POINT ( 'NONE', #92 ) ;
#127 = DIRECTION ( 'NONE',  ( -0.0000000000000000000, 1.000000000000000000, 2.048885995248197400E-016 ) ) ;
#128 = LOCAL_TIME ( 14, 33, 25.00000000000000000, #196 ) ;
#129 = ADVANCED_FACE ( 'NONE', ( #65 ), #217, .T. ) ;
#130 = CARTESIAN_POINT ( 'NONE',  ( 0.7500000000000000000, 12.69999999999999800, 12.69999999999999900 ) ) ;
#131 = VERTEX_POINT ( 'NONE', #215 ) ;
#132 = CARTESIAN_POINT ( 'NONE',  ( 0.7500000000000000000, 12.69999999999999800, -12.69999999999999900 ) ) ;
#133 = DIRECTION ( 'NONE',  ( -0.0000000000000000000, 1.000000000000000000, 2.048885995248197400E-016 ) ) ;
#134 = VECTOR ( 'NONE', #61, 1000.000000000000000 ) ;
#135 = CARTESIAN_POINT ( 'NONE',  ( 0.7500000000000000000, 12.69999999999999800, 12.69999999999999900 ) ) ;
#136 = DIRECTION ( 'NONE',  ( 0.0000000000000000000, 0.0000000000000000000, 1.000000000000000000 ) ) ;
#137 = ORIENTED_EDGE ( 'NONE', *, *, #231, .T. ) ;
#138 = AXIS2_PLACEMENT_3D ( 'NONE', #132, #55, #181 ) ;
#139 = PERSON_AND_ORGANIZATION_ROLE ( 'creator' ) ;
#140 = EDGE_LOOP ( 'NONE', ( #211, #29, #219, #221 ) ) ;
#141 = APPROVAL_DATE_TIME ( #114, #23 ) ;
#142 = APPROVAL_STATUS ( 'not_yet_approved' ) ;
#143 = ORIENTED_EDGE ( 'NONE', *, *, #179, .F. ) ;
#144 = PRODUCT_DEFINITION ( 'UNKNOWN', '', #42, #164 ) ;
#145 = AXIS2_PLACEMENT_3D ( 'NONE', #206, #2, #57 ) ;
#146 = FACE_OUTER_BOUND ( 'NONE', #100, .T. ) ;
#147 = CARTESIAN_POINT ( 'NONE',  ( 0.7500000000000000000, 12.69999999999999800, -12.69999999999999900 ) ) ;
#148 = AXIS2_PLACEMENT_3D ( 'NONE', #135, #62, #37 ) ;
#149 = ADVANCED_FACE ( 'NONE', ( #17 ), #185, .F. ) ;
#150 = ORIENTED_EDGE ( 'NONE', *, *, #59, .F. ) ;
#151 = DIRECTION ( 'NONE',  ( 1.000000000000000000, 0.0000000000000000000, 0.0000000000000000000 ) ) ;
#152 = CARTESIAN_POINT ( 'NONE',  ( 0.7500000000000000000, -12.70000000000000100, 12.70000000000000500 ) ) ;
#153 = LINE ( 'NONE', #115, #191 ) ;
#154 = DIRECTION ( 'NONE',  ( 0.0000000000000000000, 0.0000000000000000000, -1.000000000000000000 ) ) ;
#155 =( LENGTH_UNIT ( ) NAMED_UNIT ( * ) SI_UNIT ( .MILLI., .METRE. ) );
#156 = EDGE_LOOP ( 'NONE', ( #39, #177, #223, #19 ) ) ;
#157 = CC_DESIGN_DATE_AND_TIME_ASSIGNMENT ( #51, #188, ( #81 ) ) ;
#158 =( NAMED_UNIT ( * ) SI_UNIT ( $, .STERADIAN. ) SOLID_ANGLE_UNIT ( ) );
#159 = LINE ( 'NONE', #69, #195 ) ;
#160 = VECTOR ( 'NONE', #169, 1000.000000000000000 ) ;
#161 = EDGE_CURVE ( 'NONE', #178, #82, #234, .T. ) ;
#162 = VERTEX_POINT ( 'NONE', #78 ) ;
#163 = CC_DESIGN_PERSON_AND_ORGANIZATION_ASSIGNMENT ( #204, #86, ( #176 ) ) ;
#164 = DESIGN_CONTEXT ( 'detailed design', #85, 'design' ) ;
#165 = CARTESIAN_POINT ( 'NONE',  ( 0.7500000000000000000, 12.69999999999999800, 12.69999999999999900 ) ) ;
#166 = VECTOR ( 'NONE', #32, 1000.000000000000000 ) ;
#167 = PRODUCT_RELATED_PRODUCT_CATEGORY ( 'detail', '', ( #176 ) ) ;
#168 = CARTESIAN_POINT ( 'NONE',  ( 0.0000000000000000000, 0.0000000000000000000, 0.0000000000000000000 ) ) ;
#169 = DIRECTION ( 'NONE',  ( 0.0000000000000000000, 0.0000000000000000000, -1.000000000000000000 ) ) ;
#170 = CARTESIAN_POINT ( 'NONE',  ( 0.7500000000000000000, -12.70000000000000100, 12.70000000000000500 ) ) ;
#171 =( NAMED_UNIT ( * ) PLANE_ANGLE_UNIT ( ) SI_UNIT ( $, .RADIAN. ) );
#172 = APPLICATION_PROTOCOL_DEFINITION ( 'international standard', 'config_control_design', 1994, #85 ) ;
#173 = ORIENTED_EDGE ( 'NONE', *, *, #59, .T. ) ;
#174 = DATE_TIME_ROLE ( 'creation_date' ) ;
#175 = EDGE_LOOP ( 'NONE', ( #70, #150, #125, #198 ) ) ;
#176 = PRODUCT ( 'Web Model 46459_47609', 'Web Model 46459_47609', '', ( #224 ) ) ;
#177 = ORIENTED_EDGE ( 'NONE', *, *, #28, .F. ) ;
#178 = VERTEX_POINT ( 'NONE', #77 ) ;
#179 = EDGE_CURVE ( 'NONE', #162, #192, #203, .T. ) ;
#180 = ORIENTED_EDGE ( 'NONE', *, *, #179, .T. ) ;
#181 = DIRECTION ( 'NONE',  ( 0.0000000000000000000, -1.000000000000000000, -2.048885995248197400E-016 ) ) ;
#182 = CARTESIAN_POINT ( 'NONE',  ( -0.7500000000000000000, -12.70000000000000100, -12.70000000000000500 ) ) ;
#183 = LOCAL_TIME ( 14, 33, 25.00000000000000000, #11 ) ;
#184 = ADVANCED_BREP_SHAPE_REPRESENTATION ( 'Web Model 46459_47609', ( #49, #16 ), #96 ) ;
#185 = PLANE ( 'NONE',  #148 ) ;
#186 = LINE ( 'NONE', #3, #229 ) ;
#187 = APPROVAL_PERSON_ORGANIZATION ( #47, #24, #103 ) ;
#188 = DATE_TIME_ROLE ( 'classification_date' ) ;
#189 = FACE_OUTER_BOUND ( 'NONE', #88, .T. ) ;
#190 = APPLICATION_CONTEXT ( 'configuration controlled 3d designs of mechanical parts and assemblies' ) ;
#191 = VECTOR ( 'NONE', #133, 1000.000000000000000 ) ;
#192 = VERTEX_POINT ( 'NONE', #205 ) ;
#193 = PERSON ( 'UNSPECIFIED', 'UNSPECIFIED', 'UNSPECIFIED', ('UNSPECIFIED'), ('UNSPECIFIED'), ('UNSPECIFIED') ) ;
#194 = APPROVAL_DATE_TIME ( #235, #24 ) ;
#195 = VECTOR ( 'NONE', #127, 1000.000000000000000 ) ;
#196 = COORDINATED_UNIVERSAL_TIME_OFFSET ( 5, 0, .BEHIND. ) ;
#197 = ADVANCED_FACE ( 'NONE', ( #146 ), #60, .F. ) ;
#198 = ORIENTED_EDGE ( 'NONE', *, *, #28, .T. ) ;
#199 = DIRECTION ( 'NONE',  ( 1.000000000000000000, 0.0000000000000000000, 0.0000000000000000000 ) ) ;
#200 = VECTOR ( 'NONE', #52, 1000.000000000000000 ) ;
#201 = CARTESIAN_POINT ( 'NONE',  ( -0.7500000000000000000, -12.70000000000000100, 12.70000000000000500 ) ) ;
#202 = CC_DESIGN_PERSON_AND_ORGANIZATION_ASSIGNMENT ( #89, #43, ( #42 ) ) ;
#203 = LINE ( 'NONE', #152, #160 ) ;
#204 = PERSON_AND_ORGANIZATION ( #193, #1 ) ;
#205 = CARTESIAN_POINT ( 'NONE',  ( 0.7500000000000000000, -12.70000000000000100, -12.70000000000000500 ) ) ;
#206 = CARTESIAN_POINT ( 'NONE',  ( 0.7500000000000000000, 12.69999999999999800, 12.69999999999999900 ) ) ;
#207 = FACE_OUTER_BOUND ( 'NONE', #140, .T. ) ;
#208 = APPROVAL_STATUS ( 'not_yet_approved' ) ;
#209 = ORIENTED_EDGE ( 'NONE', *, *, #20, .F. ) ;
#210 = VECTOR ( 'NONE', #30, 1000.000000000000000 ) ;
#211 = ORIENTED_EDGE ( 'NONE', *, *, #161, .F. ) ;
#212 = EDGE_CURVE ( 'NONE', #82, #124, #83, .T. ) ;
#213 = DATE_AND_TIME ( #220, #27 ) ;
#214 = LINE ( 'NONE', #72, #166 ) ;
#215 = CARTESIAN_POINT ( 'NONE',  ( 0.7500000000000000000, 12.69999999999999800, 12.69999999999999900 ) ) ;
#216 = ADVANCED_FACE ( 'NONE', ( #189 ), #5, .F. ) ;
#217 = PLANE ( 'NONE',  #12 ) ;
#218 = EDGE_CURVE ( 'NONE', #124, #126, #153, .T. ) ;
#219 = ORIENTED_EDGE ( 'NONE', *, *, #218, .F. ) ;
#220 = CALENDAR_DATE ( 2018, 15, 3 ) ;
#221 = ORIENTED_EDGE ( 'NONE', *, *, #212, .F. ) ;
#222 = DIRECTION ( 'NONE',  ( -0.0000000000000000000, 1.000000000000000000, 0.0000000000000000000 ) ) ;
#223 = ORIENTED_EDGE ( 'NONE', *, *, #90, .F. ) ;
#224 = MECHANICAL_CONTEXT ( 'NONE', #190, 'mechanical' ) ;
#225 = APPROVAL_ROLE ( '' ) ;
#226 = PERSON_AND_ORGANIZATION ( #193, #1 ) ;
#227 = ORIENTED_EDGE ( 'NONE', *, *, #231, .F. ) ;
#228 = PRODUCT_DEFINITION_SHAPE ( 'NONE', 'NONE',  #144 ) ;
#229 = VECTOR ( 'NONE', #15, 1000.000000000000000 ) ;
#230 = DATE_AND_TIME ( #104, #128 ) ;
#231 = EDGE_CURVE ( 'NONE', #131, #162, #186, .T. ) ;
#232 = ORIENTED_EDGE ( 'NONE', *, *, #20, .T. ) ;
#233 = CC_DESIGN_APPROVAL ( #24, ( #144 ) ) ;
#234 = LINE ( 'NONE', #36, #40 ) ;
#235 = DATE_AND_TIME ( #44, #80 ) ;
#236 = PLANE ( 'NONE',  #138 ) ;
#237 = CARTESIAN_POINT ( 'NONE',  ( -0.7500000000000000000, 12.69999999999999800, 12.69999999999999900 ) ) ;
ENDSEC;
END-ISO-10303-21;
