ISO-10303-21;
HEADER;
FILE_DESCRIPTION (( 'STEP AP214' ),
    '1' );
FILE_NAME ('3279-E0W.STEP',
    '2009-12-21T16:56:58',
    ( ' ' ),
    ( ' ' ),
    'SwSTEP 2.0',
    'SolidWorks 2009',
    '' );
FILE_SCHEMA (( 'AUTOMOTIVE_DESIGN' ));
ENDSEC;

DATA;
#1 = VERTEX_POINT ( 'NONE', #52 ) ;
#2 = ORIENTED_EDGE ( 'NONE', *, *, #47, .T. ) ;
#3 = VERTEX_POINT ( 'NONE', #51 ) ;
#4 = EDGE_CURVE ( 'NONE', #1, #5, #72, .T. ) ;
#5 = VERTEX_POINT ( 'NONE', #95 ) ;
#6 = ORIENTED_EDGE ( 'NONE', *, *, #7, .T. ) ;
#7 = EDGE_CURVE ( 'NONE', #5, #16, #178, .T. ) ;
#8 = ADVANCED_FACE ( 'NONE', ( #75 ), #140, .T. ) ;
#9 = ORIENTED_EDGE ( 'NONE', *, *, #41, .T. ) ;
#10 = ORIENTED_EDGE ( 'NONE', *, *, #4, .T. ) ;
#11 = CLOSED_SHELL ( 'NONE', ( #8, #31, #23, #49, #12 ) ) ;
#12 = ADVANCED_FACE ( 'NONE', ( #57 ), #148, .F. ) ;
#13 = ORIENTED_EDGE ( 'NONE', *, *, #14, .T. ) ;
#14 = EDGE_CURVE ( 'NONE', #5, #37, #147, .T. ) ;
#15 = ORIENTED_EDGE ( 'NONE', *, *, #43, .T. ) ;
#16 = VERTEX_POINT ( 'NONE', #142 ) ;
#17 = ORIENTED_EDGE ( 'NONE', *, *, #33, .F. ) ;
#18 = PRODUCT_RELATED_PRODUCT_CATEGORY ( 'part', '', ( #239 ) ) ;
#19 = EDGE_LOOP ( 'NONE', ( #21, #22 ) ) ;
#20 = EDGE_LOOP ( 'NONE', ( #50, #45, #27, #28, #38 ) ) ;
#21 = ORIENTED_EDGE ( 'NONE', *, *, #43, .F. ) ;
#22 = ORIENTED_EDGE ( 'NONE', *, *, #26, .F. ) ;
#23 = ADVANCED_FACE ( 'NONE', ( #93 ), #160, .T. ) ;
#24 = EDGE_LOOP ( 'NONE', ( #25, #13, #29, #30 ) ) ;
#25 = ORIENTED_EDGE ( 'NONE', *, *, #7, .F. ) ;
#26 = EDGE_CURVE ( 'NONE', #3, #44, #161, .T. ) ;
#27 = ORIENTED_EDGE ( 'NONE', *, *, #40, .T. ) ;
#28 = ORIENTED_EDGE ( 'NONE', *, *, #14, .F. ) ;
#29 = ORIENTED_EDGE ( 'NONE', *, *, #36, .T. ) ;
#30 = ORIENTED_EDGE ( 'NONE', *, *, #33, .T. ) ;
#31 = ADVANCED_FACE ( 'NONE', ( #170 ), #104, .T. ) ;
#32 = EDGE_LOOP ( 'NONE', ( #9, #10, #6, #17 ) ) ;
#33 = EDGE_CURVE ( 'NONE', #42, #16, #190, .T. ) ;
#34 = MANIFOLD_SOLID_BREP ( 'NONE', #11 ) ;
#35 = ORIENTED_EDGE ( 'NONE', *, *, #36, .F. ) ;
#36 = EDGE_CURVE ( 'NONE', #37, #42, #70, .T. ) ;
#37 = VERTEX_POINT ( 'NONE', #156 ) ;
#38 = ORIENTED_EDGE ( 'NONE', *, *, #4, .F. ) ;
#39 = ORIENTED_EDGE ( 'NONE', *, *, #40, .F. ) ;
#40 = EDGE_CURVE ( 'NONE', #44, #37, #155, .T. ) ;
#41 = EDGE_CURVE ( 'NONE', #42, #1, #151, .T. ) ;
#42 = VERTEX_POINT ( 'NONE', #217 ) ;
#43 = EDGE_CURVE ( 'NONE', #44, #3, #216, .T. ) ;
#44 = VERTEX_POINT ( 'NONE', #211 ) ;
#45 = ORIENTED_EDGE ( 'NONE', *, *, #26, .T. ) ;
#46 = EDGE_LOOP ( 'NONE', ( #15, #2, #48, #35, #39 ) ) ;
#47 = EDGE_CURVE ( 'NONE', #3, #1, #210, .T. ) ;
#48 = ORIENTED_EDGE ( 'NONE', *, *, #41, .F. ) ;
#49 = ADVANCED_FACE ( 'NONE', ( #205 ), #233, .T. ) ;
#50 = ORIENTED_EDGE ( 'NONE', *, *, #47, .F. ) ;
#51 = CARTESIAN_POINT ( 'NONE',  ( -25.39999999999999900, 3.110500138708838200E-015, -1.915000000000000000 ) ) ;
#52 = CARTESIAN_POINT ( 'NONE',  ( -25.39999999999999900, 3.110500138708838200E-015, 1.079066702288028900 ) ) ;
#53 = SHAPE_DEFINITION_REPRESENTATION ( #54, #256 ) ;
#54 = PRODUCT_DEFINITION_SHAPE ( 'NONE', 'NONE',  #235 ) ;
#55 = DIRECTION ( 'NONE',  ( -0.0000000000000000000, -0.0000000000000000000, 1.000000000000000000 ) ) ;
#56 = COLOUR_RGB ( '',0.9568627450980391500, 0.9490196078431372100, 0.9607843137254902200 ) ;
#57 = FACE_OUTER_BOUND ( 'NONE', #19, .T. ) ;
#58 =( LENGTH_UNIT ( ) NAMED_UNIT ( * ) SI_UNIT ( .MILLI., .METRE. ) );
#59 = MECHANICAL_DESIGN_GEOMETRIC_PRESENTATION_REPRESENTATION (  '', ( #163 ), #105 ) ;
#60 = PRESENTATION_LAYER_ASSIGNMENT (  '', '', ( #163 ) ) ;
#61 = CARTESIAN_POINT ( 'NONE',  ( 0.0000000000000000000, 0.0000000000000000000, -1.915000000000000000 ) ) ;
#62 = AXIS2_PLACEMENT_3D ( 'NONE', #61, #172, #171 ) ;
#63 = FILL_AREA_STYLE_COLOUR ( '', #169 ) ;
#64 = DIRECTION ( 'NONE',  ( 0.0000000000000000000, 1.000000000000000000, 0.0000000000000000000 ) ) ;
#65 = DIRECTION ( 'NONE',  ( -1.000000000000000000, 0.0000000000000000000, 0.0000000000000000000 ) ) ;
#66 = CARTESIAN_POINT ( 'NONE',  ( 0.0000000000000000000, 0.0000000000000000000, -384.3949999999999800 ) ) ;
#67 = DIRECTION ( 'NONE',  ( -0.0000000000000000000, -0.0000000000000000000, 1.000000000000000000 ) ) ;
#68 = CARTESIAN_POINT ( 'NONE',  ( 0.0000000000000000000, 0.0000000000000000000, 1.079066702288028900 ) ) ;
#69 = AXIS2_PLACEMENT_3D ( 'NONE', #68, #67, #157 ) ;
#70 = CIRCLE ( 'NONE', #69, 25.39999999999999900 ) ;
#71 =( GEOMETRIC_REPRESENTATION_CONTEXT ( 3 ) GLOBAL_UNCERTAINTY_ASSIGNED_CONTEXT ( ( #82 ) ) GLOBAL_UNIT_ASSIGNED_CONTEXT ( ( #108, #84, #83 ) ) REPRESENTATION_CONTEXT ( 'NONE', 'WORKASPACE' ) );
#72 = CIRCLE ( 'NONE', #150, 25.39999999999999900 ) ;
#73 = UNCERTAINTY_MEASURE_WITH_UNIT (LENGTH_MEASURE( 1.000000000000000100E-005 ), #129, 'distance_accuracy_value', 'NONE');
#74 =( NAMED_UNIT ( * ) SI_UNIT ( $, .STERADIAN. ) SOLID_ANGLE_UNIT ( ) );
#75 = FACE_OUTER_BOUND ( 'NONE', #46, .T. ) ;
#76 =( GEOMETRIC_REPRESENTATION_CONTEXT ( 3 ) GLOBAL_UNCERTAINTY_ASSIGNED_CONTEXT ( ( #73 ) ) GLOBAL_UNIT_ASSIGNED_CONTEXT ( ( #129, #173, #74 ) ) REPRESENTATION_CONTEXT ( 'NONE', 'WORKASPACE' ) );
#77 = UNCERTAINTY_MEASURE_WITH_UNIT (LENGTH_MEASURE( 1.000000000000000100E-005 ), #125, 'distance_accuracy_value', 'NONE');
#78 =( NAMED_UNIT ( * ) PLANE_ANGLE_UNIT ( ) SI_UNIT ( $, .RADIAN. ) );
#79 = MECHANICAL_DESIGN_GEOMETRIC_PRESENTATION_REPRESENTATION (  '', ( #81 ), #85 ) ;
#80 = PRESENTATION_LAYER_ASSIGNMENT (  '', '', ( #81 ) ) ;
#81 = STYLED_ITEM ( 'NONE', ( #131 ), #8 ) ;
#82 = UNCERTAINTY_MEASURE_WITH_UNIT (LENGTH_MEASURE( 1.000000000000000100E-005 ), #108, 'distance_accuracy_value', 'NONE');
#83 =( NAMED_UNIT ( * ) SI_UNIT ( $, .STERADIAN. ) SOLID_ANGLE_UNIT ( ) );
#84 =( NAMED_UNIT ( * ) PLANE_ANGLE_UNIT ( ) SI_UNIT ( $, .RADIAN. ) );
#85 =( GEOMETRIC_REPRESENTATION_CONTEXT ( 3 ) GLOBAL_UNCERTAINTY_ASSIGNED_CONTEXT ( ( #77 ) ) GLOBAL_UNIT_ASSIGNED_CONTEXT ( ( #125, #99, #174 ) ) REPRESENTATION_CONTEXT ( 'NONE', 'WORKASPACE' ) );
#86 = PRESENTATION_LAYER_ASSIGNMENT (  '', '', ( #87 ) ) ;
#87 = STYLED_ITEM ( 'NONE', ( #88 ), #23 ) ;
#88 = PRESENTATION_STYLE_ASSIGNMENT (( #89 ) ) ;
#89 = SURFACE_STYLE_USAGE ( .BOTH. , #90 ) ;
#90 = SURFACE_SIDE_STYLE ('',( #91 ) ) ;
#91 = SURFACE_STYLE_FILL_AREA ( #141 ) ;
#92 = COLOUR_RGB ( '',0.9568627450980391500, 0.9490196078431372100, 0.9607843137254902200 ) ;
#93 = FACE_OUTER_BOUND ( 'NONE', #24, .T. ) ;
#94 = DIRECTION ( 'NONE',  ( -0.0000000000000000000, -0.0000000000000000000, 1.000000000000000000 ) ) ;
#95 = CARTESIAN_POINT ( 'NONE',  ( -3.110500138708844900E-015, -25.40000000000005500, 1.079066702288053800 ) ) ;
#96 = DIRECTION ( 'NONE',  ( -1.224606353822377300E-016, -1.000000000000000000, 0.0000000000000000000 ) ) ;
#97 = DIRECTION ( 'NONE',  ( 1.000000000000000000, 0.0000000000000000000, 0.0000000000000000000 ) ) ;
#98 = CARTESIAN_POINT ( 'NONE',  ( 0.0000000000000000000, 0.0000000000000000000, 1.079066702288028900 ) ) ;
#99 =( NAMED_UNIT ( * ) PLANE_ANGLE_UNIT ( ) SI_UNIT ( $, .RADIAN. ) );
#100 = MECHANICAL_DESIGN_GEOMETRIC_PRESENTATION_REPRESENTATION (  '', ( #102 ), #149 ) ;
#101 = PRESENTATION_LAYER_ASSIGNMENT (  '', '', ( #102 ) ) ;
#102 = STYLED_ITEM ( 'NONE', ( #103 ), #12 ) ;
#103 = PRESENTATION_STYLE_ASSIGNMENT (( #135 ) ) ;
#104 = SPHERICAL_SURFACE ( 'NONE', #189, 386.3100000000000000 ) ;
#105 =( GEOMETRIC_REPRESENTATION_CONTEXT ( 3 ) GLOBAL_UNCERTAINTY_ASSIGNED_CONTEXT ( ( #126 ) ) GLOBAL_UNIT_ASSIGNED_CONTEXT ( ( #58, #128, #127 ) ) REPRESENTATION_CONTEXT ( 'NONE', 'WORKASPACE' ) );
#106 = CARTESIAN_POINT ( 'NONE',  ( 0.0000000000000000000, 0.0000000000000000000, 4.308132045400366600 ) ) ;
#107 = AXIS2_PLACEMENT_3D ( 'NONE', #106, #55, #139 ) ;
#108 =( LENGTH_UNIT ( ) NAMED_UNIT ( * ) SI_UNIT ( .MILLI., .METRE. ) );
#109 = MECHANICAL_DESIGN_GEOMETRIC_PRESENTATION_REPRESENTATION (  '', ( #111 ), #71 ) ;
#110 = PRESENTATION_LAYER_ASSIGNMENT (  '', '', ( #111 ) ) ;
#111 = STYLED_ITEM ( 'NONE', ( #112 ), #34 ) ;
#112 = PRESENTATION_STYLE_ASSIGNMENT (( #113 ) ) ;
#113 = SURFACE_STYLE_USAGE ( .BOTH. , #114 ) ;
#114 = SURFACE_SIDE_STYLE ('',( #115 ) ) ;
#115 = SURFACE_STYLE_FILL_AREA ( #116 ) ;
#116 = FILL_AREA_STYLE ('',( #185 ) ) ;
#117 = COLOUR_RGB ( '',0.7960784313725489700, 0.8235294117647058400, 0.9372549019607843100 ) ;
#118 = DIRECTION ( 'NONE',  ( 0.0000000000000000000, 0.0000000000000000000, -1.000000000000000000 ) ) ;
#119 = AXIS2_PLACEMENT_3D ( 'NONE', #176, #175, #96 ) ;
#120 = UNCERTAINTY_MEASURE_WITH_UNIT (LENGTH_MEASURE( 1.000000000000000100E-005 ), #195, 'distance_accuracy_value', 'NONE');
#121 =( NAMED_UNIT ( * ) SI_UNIT ( $, .STERADIAN. ) SOLID_ANGLE_UNIT ( ) );
#122 =( NAMED_UNIT ( * ) PLANE_ANGLE_UNIT ( ) SI_UNIT ( $, .RADIAN. ) );
#123 = CARTESIAN_POINT ( 'NONE',  ( 0.0000000000000000000, 7.035595861101544000E-016, -1.915000000000000000 ) ) ;
#124 = AXIS2_PLACEMENT_3D ( 'NONE', #123, #193, #192 ) ;
#125 =( LENGTH_UNIT ( ) NAMED_UNIT ( * ) SI_UNIT ( .MILLI., .METRE. ) );
#126 = UNCERTAINTY_MEASURE_WITH_UNIT (LENGTH_MEASURE( 1.000000000000000100E-005 ), #58, 'distance_accuracy_value', 'NONE');
#127 =( NAMED_UNIT ( * ) SI_UNIT ( $, .STERADIAN. ) SOLID_ANGLE_UNIT ( ) );
#128 =( NAMED_UNIT ( * ) PLANE_ANGLE_UNIT ( ) SI_UNIT ( $, .RADIAN. ) );
#129 =( LENGTH_UNIT ( ) NAMED_UNIT ( * ) SI_UNIT ( .MILLI., .METRE. ) );
#130 = MECHANICAL_DESIGN_GEOMETRIC_PRESENTATION_REPRESENTATION (  '', ( #87 ), #76 ) ;
#131 = PRESENTATION_STYLE_ASSIGNMENT (( #132 ) ) ;
#132 = SURFACE_STYLE_USAGE ( .BOTH. , #133 ) ;
#133 = SURFACE_SIDE_STYLE ('',( #194 ) ) ;
#134 = FILL_AREA_STYLE_COLOUR ( '', #56 ) ;
#135 = SURFACE_STYLE_USAGE ( .BOTH. , #136 ) ;
#136 = SURFACE_SIDE_STYLE ('',( #137 ) ) ;
#137 = SURFACE_STYLE_FILL_AREA ( #138 ) ;
#138 = FILL_AREA_STYLE ('',( #134 ) ) ;
#139 = DIRECTION ( 'NONE',  ( 1.000000000000000000, 0.0000000000000000000, 0.0000000000000000000 ) ) ;
#140 = CYLINDRICAL_SURFACE ( 'NONE', #107, 25.39999999999999900 ) ;
#141 = FILL_AREA_STYLE ('',( #191 ) ) ;
#142 = CARTESIAN_POINT ( 'NONE',  ( 0.0000000000000000000, 2.365388402725612600E-014, 1.915000000000000000 ) ) ;
#143 = DIRECTION ( 'NONE',  ( 1.000000000000000000, 0.0000000000000000000, 0.0000000000000000000 ) ) ;
#144 = DIRECTION ( 'NONE',  ( -0.0000000000000000000, -0.0000000000000000000, 1.000000000000000000 ) ) ;
#145 = CARTESIAN_POINT ( 'NONE',  ( 0.0000000000000000000, 0.0000000000000000000, 1.079066702288028900 ) ) ;
#146 = AXIS2_PLACEMENT_3D ( 'NONE', #145, #144, #143 ) ;
#147 = CIRCLE ( 'NONE', #146, 25.39999999999999900 ) ;
#148 = PLANE ( 'NONE',  #124 ) ;
#149 =( GEOMETRIC_REPRESENTATION_CONTEXT ( 3 ) GLOBAL_UNCERTAINTY_ASSIGNED_CONTEXT ( ( #180 ) ) GLOBAL_UNIT_ASSIGNED_CONTEXT ( ( #179, #78, #181 ) ) REPRESENTATION_CONTEXT ( 'NONE', 'WORKASPACE' ) );
#150 = AXIS2_PLACEMENT_3D ( 'NONE', #98, #94, #97 ) ;
#151 = CIRCLE ( 'NONE', #221, 25.39999999999999900 ) ;
#152 = DIRECTION ( 'NONE',  ( -0.0000000000000000000, -0.0000000000000000000, 1.000000000000000000 ) ) ;
#153 = VECTOR ( 'NONE', #152, 1000.000000000000000 ) ;
#154 = CARTESIAN_POINT ( 'NONE',  ( 25.39999999999999900, 0.0000000000000000000, 4.308132045400366600 ) ) ;
#155 = LINE ( 'NONE', #154, #153 ) ;
#156 = CARTESIAN_POINT ( 'NONE',  ( 25.39999999999999900, 0.0000000000000000000, 1.079066702288028900 ) ) ;
#157 = DIRECTION ( 'NONE',  ( 1.000000000000000000, 0.0000000000000000000, 0.0000000000000000000 ) ) ;
#158 = FILL_AREA_STYLE ('',( #177 ) ) ;
#159 = COLOUR_RGB ( '',0.9568627450980391500, 0.9490196078431372100, 0.9607843137254902200 ) ;
#160 = SPHERICAL_SURFACE ( 'NONE', #162, 386.3100000000000000 ) ;
#161 = CIRCLE ( 'NONE', #62, 25.39999999999999900 ) ;
#162 = AXIS2_PLACEMENT_3D ( 'NONE', #66, #65, #64 ) ;
#163 = STYLED_ITEM ( 'NONE', ( #164 ), #31 ) ;
#164 = PRESENTATION_STYLE_ASSIGNMENT (( #165 ) ) ;
#165 = SURFACE_STYLE_USAGE ( .BOTH. , #166 ) ;
#166 = SURFACE_SIDE_STYLE ('',( #167 ) ) ;
#167 = SURFACE_STYLE_FILL_AREA ( #168 ) ;
#168 = FILL_AREA_STYLE ('',( #63 ) ) ;
#169 = COLOUR_RGB ( '',0.9568627450980391500, 0.9490196078431372100, 0.9607843137254902200 ) ;
#170 = FACE_OUTER_BOUND ( 'NONE', #32, .T. ) ;
#171 = DIRECTION ( 'NONE',  ( 1.000000000000000000, 0.0000000000000000000, 0.0000000000000000000 ) ) ;
#172 = DIRECTION ( 'NONE',  ( -0.0000000000000000000, -0.0000000000000000000, 1.000000000000000000 ) ) ;
#173 =( NAMED_UNIT ( * ) PLANE_ANGLE_UNIT ( ) SI_UNIT ( $, .RADIAN. ) );
#174 =( NAMED_UNIT ( * ) SI_UNIT ( $, .STERADIAN. ) SOLID_ANGLE_UNIT ( ) );
#175 = DIRECTION ( 'NONE',  ( -1.000000000000000000, 1.224606353822377300E-016, 0.0000000000000000000 ) ) ;
#176 = CARTESIAN_POINT ( 'NONE',  ( 0.0000000000000000000, 0.0000000000000000000, -384.3949999999999800 ) ) ;
#177 = FILL_AREA_STYLE_COLOUR ( '', #159 ) ;
#178 = CIRCLE ( 'NONE', #119, 386.3100000000000000 ) ;
#179 =( LENGTH_UNIT ( ) NAMED_UNIT ( * ) SI_UNIT ( .MILLI., .METRE. ) );
#180 = UNCERTAINTY_MEASURE_WITH_UNIT (LENGTH_MEASURE( 1.000000000000000100E-005 ), #179, 'distance_accuracy_value', 'NONE');
#181 =( NAMED_UNIT ( * ) SI_UNIT ( $, .STERADIAN. ) SOLID_ANGLE_UNIT ( ) );
#182 = DIRECTION ( 'NONE',  ( 1.000000000000000000, 0.0000000000000000000, 0.0000000000000000000 ) ) ;
#183 = CARTESIAN_POINT ( 'NONE',  ( 0.0000000000000000000, 0.0000000000000000000, -384.3949999999999800 ) ) ;
#184 = AXIS2_PLACEMENT_3D ( 'NONE', #183, #182, #118 ) ;
#185 = FILL_AREA_STYLE_COLOUR ( '', #117 ) ;
#186 = DIRECTION ( 'NONE',  ( 0.0000000000000000000, 1.000000000000000000, 0.0000000000000000000 ) ) ;
#187 = DIRECTION ( 'NONE',  ( -1.000000000000000000, 0.0000000000000000000, 0.0000000000000000000 ) ) ;
#188 = CARTESIAN_POINT ( 'NONE',  ( 0.0000000000000000000, 0.0000000000000000000, -384.3949999999999800 ) ) ;
#189 = AXIS2_PLACEMENT_3D ( 'NONE', #188, #187, #186 ) ;
#190 = CIRCLE ( 'NONE', #184, 386.3100000000000000 ) ;
#191 = FILL_AREA_STYLE_COLOUR ( '', #92 ) ;
#192 = DIRECTION ( 'NONE',  ( 1.000000000000000000, 0.0000000000000000000, 0.0000000000000000000 ) ) ;
#193 = DIRECTION ( 'NONE',  ( 0.0000000000000000000, -0.0000000000000000000, 1.000000000000000000 ) ) ;
#194 = SURFACE_STYLE_FILL_AREA ( #158 ) ;
#195 =( LENGTH_UNIT ( ) NAMED_UNIT ( * ) SI_UNIT ( .MILLI., .METRE. ) );
#196 = MECHANICAL_DESIGN_GEOMETRIC_PRESENTATION_REPRESENTATION (  '', ( #198 ), #230 ) ;
#197 = PRESENTATION_LAYER_ASSIGNMENT (  '', '', ( #198 ) ) ;
#198 = STYLED_ITEM ( 'NONE', ( #199 ), #49 ) ;
#199 = PRESENTATION_STYLE_ASSIGNMENT (( #200 ) ) ;
#200 = SURFACE_STYLE_USAGE ( .BOTH. , #201 ) ;
#201 = SURFACE_SIDE_STYLE ('',( #202 ) ) ;
#202 = SURFACE_STYLE_FILL_AREA ( #203 ) ;
#203 = FILL_AREA_STYLE ('',( #209 ) ) ;
#204 = COLOUR_RGB ( '',0.9568627450980391500, 0.9490196078431372100, 0.9607843137254902200 ) ;
#205 = FACE_OUTER_BOUND ( 'NONE', #20, .T. ) ;
#206 = DIRECTION ( 'NONE',  ( -0.0000000000000000000, -0.0000000000000000000, 1.000000000000000000 ) ) ;
#207 = VECTOR ( 'NONE', #206, 1000.000000000000000 ) ;
#208 = CARTESIAN_POINT ( 'NONE',  ( -25.39999999999999900, 3.110500138708838200E-015, 4.308132045400366600 ) ) ;
#209 = FILL_AREA_STYLE_COLOUR ( '', #204 ) ;
#210 = LINE ( 'NONE', #208, #207 ) ;
#211 = CARTESIAN_POINT ( 'NONE',  ( 25.39999999999999900, 0.0000000000000000000, -1.915000000000000000 ) ) ;
#212 = DIRECTION ( 'NONE',  ( 1.000000000000000000, 0.0000000000000000000, 0.0000000000000000000 ) ) ;
#213 = DIRECTION ( 'NONE',  ( -0.0000000000000000000, -0.0000000000000000000, 1.000000000000000000 ) ) ;
#214 = CARTESIAN_POINT ( 'NONE',  ( 0.0000000000000000000, 0.0000000000000000000, -1.915000000000000000 ) ) ;
#215 = AXIS2_PLACEMENT_3D ( 'NONE', #214, #213, #212 ) ;
#216 = CIRCLE ( 'NONE', #215, 25.39999999999999900 ) ;
#217 = CARTESIAN_POINT ( 'NONE',  ( 0.0000000000000000000, 25.40000000000005500, 1.079066702288053800 ) ) ;
#218 = DIRECTION ( 'NONE',  ( 1.000000000000000000, 0.0000000000000000000, 0.0000000000000000000 ) ) ;
#219 = DIRECTION ( 'NONE',  ( -0.0000000000000000000, -0.0000000000000000000, 1.000000000000000000 ) ) ;
#220 = CARTESIAN_POINT ( 'NONE',  ( 0.0000000000000000000, 0.0000000000000000000, 1.079066702288028900 ) ) ;
#221 = AXIS2_PLACEMENT_3D ( 'NONE', #220, #219, #218 ) ;
#222 =( NAMED_UNIT ( * ) SI_UNIT ( $, .STERADIAN. ) SOLID_ANGLE_UNIT ( ) );
#223 =( NAMED_UNIT ( * ) PLANE_ANGLE_UNIT ( ) SI_UNIT ( $, .RADIAN. ) );
#224 =( LENGTH_UNIT ( ) NAMED_UNIT ( * ) SI_UNIT ( .MILLI., .METRE. ) );
#225 = MECHANICAL_DESIGN_GEOMETRIC_PRESENTATION_REPRESENTATION (  '', ( #248 ), #245 ) ;
#226 = DIRECTION ( 'NONE',  ( 1.000000000000000000, 0.0000000000000000000, 0.0000000000000000000 ) ) ;
#227 =( GEOMETRIC_REPRESENTATION_CONTEXT ( 3 ) GLOBAL_UNCERTAINTY_ASSIGNED_CONTEXT ( ( #228 ) ) GLOBAL_UNIT_ASSIGNED_CONTEXT ( ( #259, #231, #260 ) ) REPRESENTATION_CONTEXT ( 'NONE', 'WORKASPACE' ) );
#228 = UNCERTAINTY_MEASURE_WITH_UNIT (LENGTH_MEASURE( 1.000000000000000100E-005 ), #259, 'distance_accuracy_value', 'NONE');
#229 = AXIS2_PLACEMENT_3D ( 'NONE', #232, #258, #226 ) ;
#230 =( GEOMETRIC_REPRESENTATION_CONTEXT ( 3 ) GLOBAL_UNCERTAINTY_ASSIGNED_CONTEXT ( ( #120 ) ) GLOBAL_UNIT_ASSIGNED_CONTEXT ( ( #195, #122, #121 ) ) REPRESENTATION_CONTEXT ( 'NONE', 'WORKASPACE' ) );
#231 =( NAMED_UNIT ( * ) PLANE_ANGLE_UNIT ( ) SI_UNIT ( $, .RADIAN. ) );
#232 = CARTESIAN_POINT ( 'NONE',  ( 0.0000000000000000000, 0.0000000000000000000, 4.308132045400366600 ) ) ;
#233 = CYLINDRICAL_SURFACE ( 'NONE', #229, 25.39999999999999900 ) ;
#234 = PRODUCT_DEFINITION_FORMATION_WITH_SPECIFIED_SOURCE ( 'ANY', '', #239, .NOT_KNOWN. ) ;
#235 = PRODUCT_DEFINITION ( 'UNKNOWN', '', #234, #236 ) ;
#236 = PRODUCT_DEFINITION_CONTEXT ( 'detailed design', #238, 'design' ) ;
#237 = APPLICATION_PROTOCOL_DEFINITION ( 'draft international standard', 'automotive_design', 1998, #238 ) ;
#238 = APPLICATION_CONTEXT ( 'automotive_design' ) ;
#239 = PRODUCT ( '3279-E0W', '3279-E0W', '', ( #240 ) ) ;
#240 = PRODUCT_CONTEXT ( 'NONE', #261, 'mechanical' ) ;
#241 = APPLICATION_PROTOCOL_DEFINITION ( 'draft international standard', 'automotive_design', 1998, #261 ) ;
#242 = DIRECTION ( 'NONE',  ( 1.000000000000000000, 0.0000000000000000000, 0.0000000000000000000 ) ) ;
#243 = DIRECTION ( 'NONE',  ( 0.0000000000000000000, 0.0000000000000000000, 1.000000000000000000 ) ) ;
#244 = AXIS2_PLACEMENT_3D ( 'NONE', #257, #243, #242 ) ;
#245 =( GEOMETRIC_REPRESENTATION_CONTEXT ( 3 ) GLOBAL_UNCERTAINTY_ASSIGNED_CONTEXT ( ( #246 ) ) GLOBAL_UNIT_ASSIGNED_CONTEXT ( ( #224, #223, #222 ) ) REPRESENTATION_CONTEXT ( 'NONE', 'WORKASPACE' ) );
#246 = UNCERTAINTY_MEASURE_WITH_UNIT (LENGTH_MEASURE( 1.000000000000000100E-005 ), #224, 'distance_accuracy_value', 'NONE');
#247 = PRESENTATION_LAYER_ASSIGNMENT (  '', '', ( #248 ) ) ;
#248 = STYLED_ITEM ( 'NONE', ( #249 ), #256 ) ;
#249 = PRESENTATION_STYLE_ASSIGNMENT (( #250 ) ) ;
#250 = SURFACE_STYLE_USAGE ( .BOTH. , #251 ) ;
#251 = SURFACE_SIDE_STYLE ('',( #252 ) ) ;
#252 = SURFACE_STYLE_FILL_AREA ( #253 ) ;
#253 = FILL_AREA_STYLE ('',( #254 ) ) ;
#254 = FILL_AREA_STYLE_COLOUR ( '', #255 ) ;
#255 = COLOUR_RGB ( '',0.7960784313725489700, 0.8235294117647058400, 0.9372549019607843100 ) ;
#256 = ADVANCED_BREP_SHAPE_REPRESENTATION ( '3279-E0W', ( #34, #244 ), #227 ) ;
#257 = CARTESIAN_POINT ( 'NONE',  ( 0.0000000000000000000, 0.0000000000000000000, 0.0000000000000000000 ) ) ;
#258 = DIRECTION ( 'NONE',  ( -0.0000000000000000000, -0.0000000000000000000, 1.000000000000000000 ) ) ;
#259 =( LENGTH_UNIT ( ) NAMED_UNIT ( * ) SI_UNIT ( .MILLI., .METRE. ) );
#260 =( NAMED_UNIT ( * ) SI_UNIT ( $, .STERADIAN. ) SOLID_ANGLE_UNIT ( ) );
#261 = APPLICATION_CONTEXT ( 'automotive_design' ) ;
ENDSEC;
END-ISO-10303-21;
