ISO-10303-21;
HEADER;
FILE_DESCRIPTION (( 'STEP AP203' ),
    '1' );
FILE_NAME ('Web Model 34429_13326.step',
    '2020-11-03T22:11:33',
    ( '' ),
    ( '' ),
    'SwSTEP 2.0',
    'SolidWorks 2018',
    '' );
FILE_SCHEMA (( 'CONFIG_CONTROL_DESIGN' ));
ENDSEC;

DATA;
#1 = COORDINATED_UNIVERSAL_TIME_OFFSET ( 5, 0, .BEHIND. ) ;
#2 = EDGE_CURVE ( 'NONE', #40, #90, #118, .T. ) ;
#3 = CALENDAR_DATE ( 2020, 3, 11 ) ;
#4 = EDGE_CURVE ( 'NONE', #40, #143, #76, .T. ) ;
#5 = ORIENTED_EDGE ( 'NONE', *, *, #2, .T. ) ;
#6 = ORIENTED_EDGE ( 'NONE', *, *, #2, .F. ) ;
#7 = PERSON_AND_ORGANIZATION ( #64, #41 ) ;
#8 = APPROVAL_STATUS ( 'not_yet_approved' ) ;
#9 =( LENGTH_UNIT ( ) NAMED_UNIT ( * ) SI_UNIT ( .MILLI., .METRE. ) );
#10 = ORIENTED_EDGE ( 'NONE', *, *, #117, .T. ) ;
#11 = APPLICATION_PROTOCOL_DEFINITION ( 'international standard', 'config_control_design', 1994, #152 ) ;
#12 = PERSON_AND_ORGANIZATION_ROLE ( 'design_owner' ) ;
#13 = VECTOR ( 'NONE', #154, 1000.000000000000000 ) ;
#14 = SHAPE_DEFINITION_REPRESENTATION ( #158, #18 ) ;
#15 = APPROVAL_STATUS ( 'not_yet_approved' ) ;
#16 = APPROVAL_DATE_TIME ( #45, #47 ) ;
#17 = APPROVAL_ROLE ( '' ) ;
#18 = ADVANCED_BREP_SHAPE_REPRESENTATION ( 'Web Model 34429_13326', ( #88, #125 ), #30 ) ;
#19 = AXIS2_PLACEMENT_3D ( 'NONE', #38, #69, #166 ) ;
#20 = ADVANCED_FACE ( 'NONE', ( #55 ), #157, .T. ) ;
#21 = EDGE_LOOP ( 'NONE', ( #6, #145, #151, #163 ) ) ;
#22 = LOCAL_TIME ( 17, 11, 33.00000000000000000, #57 ) ;
#23 = AXIS2_PLACEMENT_3D ( 'NONE', #83, #36, #165 ) ;
#24 =( NAMED_UNIT ( * ) SI_UNIT ( $, .STERADIAN. ) SOLID_ANGLE_UNIT ( ) );
#25 = EDGE_CURVE ( 'NONE', #143, #93, #130, .T. ) ;
#26 = PERSON_AND_ORGANIZATION ( #64, #41 ) ;
#27 = DIRECTION ( 'NONE',  ( 0.0000000000000000000, 0.0000000000000000000, 1.000000000000000000 ) ) ;
#28 = DATE_AND_TIME ( #3, #77 ) ;
#29 = CARTESIAN_POINT ( 'NONE',  ( 25.00000000000000000, 3.061616997868383043E-15, 3.000000000000000000 ) ) ;
#30 =( GEOMETRIC_REPRESENTATION_CONTEXT ( 3 ) GLOBAL_UNCERTAINTY_ASSIGNED_CONTEXT ( ( #46 ) ) GLOBAL_UNIT_ASSIGNED_CONTEXT ( ( #9, #162, #24 ) ) REPRESENTATION_CONTEXT ( 'NONE', 'WORKASPACE' ) );
#31 = CALENDAR_DATE ( 2020, 3, 11 ) ;
#32 = LOCAL_TIME ( 17, 11, 33.00000000000000000, #172 ) ;
#33 = EDGE_CURVE ( 'NONE', #93, #143, #121, .T. ) ;
#34 = APPROVAL_PERSON_ORGANIZATION ( #62, #92, #140 ) ;
#35 = CC_DESIGN_DATE_AND_TIME_ASSIGNMENT ( #105, #113, ( #85 ) ) ;
#36 = DIRECTION ( 'NONE',  ( 0.0000000000000000000, 0.0000000000000000000, 1.000000000000000000 ) ) ;
#37 = DIRECTION ( 'NONE',  ( 1.000000000000000000, 0.0000000000000000000, 0.0000000000000000000 ) ) ;
#38 = CARTESIAN_POINT ( 'NONE',  ( 0.0000000000000000000, 0.0000000000000000000, 3.000000000000000000 ) ) ;
#39 = CC_DESIGN_PERSON_AND_ORGANIZATION_ASSIGNMENT ( #60, #12, ( #124 ) ) ;
#40 = VERTEX_POINT ( 'NONE', #139 ) ;
#41 = ORGANIZATION ( 'UNSPECIFIED', 'UNSPECIFIED', '' ) ;
#42 = CC_DESIGN_PERSON_AND_ORGANIZATION_ASSIGNMENT ( #150, #82, ( #144 ) ) ;
#43 = LOCAL_TIME ( 17, 11, 33.00000000000000000, #56 ) ;
#44 = ORIENTED_EDGE ( 'NONE', *, *, #25, .F. ) ;
#45 = DATE_AND_TIME ( #164, #22 ) ;
#46 = UNCERTAINTY_MEASURE_WITH_UNIT (LENGTH_MEASURE( 1.000000000000000082E-05 ), #9, 'distance_accuracy_value', 'NONE');
#47 = APPROVAL ( #15, 'UNSPECIFIED' ) ;
#48 = DIRECTION ( 'NONE',  ( 0.0000000000000000000, 0.0000000000000000000, 1.000000000000000000 ) ) ;
#49 = DATE_AND_TIME ( #96, #43 ) ;
#50 = AXIS2_PLACEMENT_3D ( 'NONE', #74, #89, #78 ) ;
#51 = MECHANICAL_CONTEXT ( 'NONE', #152, 'mechanical' ) ;
#52 = LOCAL_TIME ( 17, 11, 33.00000000000000000, #98 ) ;
#53 = DATE_TIME_ROLE ( 'classification_date' ) ;
#54 = DESIGN_CONTEXT ( 'detailed design', #91, 'design' ) ;
#55 = FACE_OUTER_BOUND ( 'NONE', #133, .T. ) ;
#56 = COORDINATED_UNIVERSAL_TIME_OFFSET ( 5, 0, .BEHIND. ) ;
#57 = COORDINATED_UNIVERSAL_TIME_OFFSET ( 5, 0, .BEHIND. ) ;
#58 = CC_DESIGN_APPROVAL ( #47, ( #85 ) ) ;
#59 = ADVANCED_FACE ( 'NONE', ( #134 ), #101, .T. ) ;
#60 = PERSON_AND_ORGANIZATION ( #64, #41 ) ;
#61 = AXIS2_PLACEMENT_3D ( 'NONE', #111, #27, #86 ) ;
#62 = PERSON_AND_ORGANIZATION ( #64, #41 ) ;
#63 = CC_DESIGN_SECURITY_CLASSIFICATION ( #144, ( #119 ) ) ;
#64 = PERSON ( 'UNSPECIFIED', 'UNSPECIFIED', 'UNSPECIFIED', ('UNSPECIFIED'), ('UNSPECIFIED'), ('UNSPECIFIED') ) ;
#65 = CARTESIAN_POINT ( 'NONE',  ( 0.0000000000000000000, 0.0000000000000000000, 3.000000000000000000 ) ) ;
#66 = APPROVAL_STATUS ( 'not_yet_approved' ) ;
#67 = DIRECTION ( 'NONE',  ( 1.000000000000000000, 0.0000000000000000000, 0.0000000000000000000 ) ) ;
#68 = SECURITY_CLASSIFICATION_LEVEL ( 'unclassified' ) ;
#69 = DIRECTION ( 'NONE',  ( -0.0000000000000000000, -0.0000000000000000000, -1.000000000000000000 ) ) ;
#70 = APPROVAL_PERSON_ORGANIZATION ( #147, #132, #108 ) ;
#71 = ORIENTED_EDGE ( 'NONE', *, *, #170, .T. ) ;
#72 = CC_DESIGN_PERSON_AND_ORGANIZATION_ASSIGNMENT ( #7, #160, ( #85 ) ) ;
#73 = DIRECTION ( 'NONE',  ( 0.0000000000000000000, 0.0000000000000000000, 1.000000000000000000 ) ) ;
#74 = CARTESIAN_POINT ( 'NONE',  ( 0.0000000000000000000, 0.0000000000000000000, 0.0000000000000000000 ) ) ;
#75 = LINE ( 'NONE', #175, #94 ) ;
#76 = LINE ( 'NONE', #29, #13 ) ;
#77 = LOCAL_TIME ( 17, 11, 33.00000000000000000, #1 ) ;
#78 = DIRECTION ( 'NONE',  ( 1.000000000000000000, 0.0000000000000000000, 0.0000000000000000000 ) ) ;
#79 = ADVANCED_FACE ( 'NONE', ( #109 ), #80, .F. ) ;
#80 = PLANE ( 'NONE',  #23 ) ;
#81 = ORIENTED_EDGE ( 'NONE', *, *, #33, .F. ) ;
#82 = PERSON_AND_ORGANIZATION_ROLE ( 'classification_officer' ) ;
#83 = CARTESIAN_POINT ( 'NONE',  ( 0.0000000000000000000, 0.0000000000000000000, 0.0000000000000000000 ) ) ;
#84 = PERSON_AND_ORGANIZATION_ROLE ( 'creator' ) ;
#85 = PRODUCT_DEFINITION ( 'UNKNOWN', '', #119, #54 ) ;
#86 = DIRECTION ( 'NONE',  ( 1.000000000000000000, 0.0000000000000000000, 0.0000000000000000000 ) ) ;
#87 = FACE_OUTER_BOUND ( 'NONE', #21, .T. ) ;
#88 = MANIFOLD_SOLID_BREP ( 'Boss-Extrude1', #97 ) ;
#89 = DIRECTION ( 'NONE',  ( 0.0000000000000000000, 0.0000000000000000000, 1.000000000000000000 ) ) ;
#90 = VERTEX_POINT ( 'NONE', #173 ) ;
#91 = APPLICATION_CONTEXT ( 'configuration controlled 3d designs of mechanical parts and assemblies' ) ;
#92 = APPROVAL ( #66, 'UNSPECIFIED' ) ;
#93 = VERTEX_POINT ( 'NONE', #153 ) ;
#94 = VECTOR ( 'NONE', #102, 1000.000000000000000 ) ;
#95 = CARTESIAN_POINT ( 'NONE',  ( 0.0000000000000000000, 0.0000000000000000000, 0.0000000000000000000 ) ) ;
#96 = CALENDAR_DATE ( 2020, 3, 11 ) ;
#97 = CLOSED_SHELL ( 'NONE', ( #116, #20, #59, #79 ) ) ;
#98 = COORDINATED_UNIVERSAL_TIME_OFFSET ( 5, 0, .BEHIND. ) ;
#99 = CC_DESIGN_PERSON_AND_ORGANIZATION_ASSIGNMENT ( #114, #100, ( #119 ) ) ;
#100 = PERSON_AND_ORGANIZATION_ROLE ( 'design_supplier' ) ;
#101 = PLANE ( 'NONE',  #141 ) ;
#102 = DIRECTION ( 'NONE',  ( -0.0000000000000000000, -0.0000000000000000000, -1.000000000000000000 ) ) ;
#103 = DIRECTION ( 'NONE',  ( 1.000000000000000000, 0.0000000000000000000, 0.0000000000000000000 ) ) ;
#104 = AXIS2_PLACEMENT_3D ( 'NONE', #95, #73, #67 ) ;
#105 = DATE_AND_TIME ( #31, #52 ) ;
#106 = CYLINDRICAL_SURFACE ( 'NONE', #148, 25.00000000000000000 ) ;
#107 = PERSON_AND_ORGANIZATION ( #64, #41 ) ;
#108 = APPROVAL_ROLE ( '' ) ;
#109 = FACE_OUTER_BOUND ( 'NONE', #159, .T. ) ;
#110 = DIRECTION ( 'NONE',  ( -0.0000000000000000000, -0.0000000000000000000, -1.000000000000000000 ) ) ;
#111 = CARTESIAN_POINT ( 'NONE',  ( 0.0000000000000000000, 0.0000000000000000000, 3.000000000000000000 ) ) ;
#112 = CARTESIAN_POINT ( 'NONE',  ( 0.0000000000000000000, 0.0000000000000000000, 3.000000000000000000 ) ) ;
#113 = DATE_TIME_ROLE ( 'creation_date' ) ;
#114 = PERSON_AND_ORGANIZATION ( #64, #41 ) ;
#115 = CARTESIAN_POINT ( 'NONE',  ( 0.0000000000000000000, 0.0000000000000000000, 3.000000000000000000 ) ) ;
#116 = ADVANCED_FACE ( 'NONE', ( #87 ), #106, .T. ) ;
#117 = EDGE_CURVE ( 'NONE', #90, #40, #171, .T. ) ;
#118 = CIRCLE ( 'NONE', #136, 25.00000000000000000 ) ;
#119 = PRODUCT_DEFINITION_FORMATION_WITH_SPECIFIED_SOURCE ( 'ANY', '', #124, .NOT_KNOWN. ) ;
#120 = CC_DESIGN_DATE_AND_TIME_ASSIGNMENT ( #28, #53, ( #144 ) ) ;
#121 = CIRCLE ( 'NONE', #104, 25.00000000000000000 ) ;
#122 = APPROVAL_DATE_TIME ( #49, #132 ) ;
#123 = PRODUCT_RELATED_PRODUCT_CATEGORY ( 'detail', '', ( #124 ) ) ;
#124 = PRODUCT ( 'Web Model 34429_13326', 'Web Model 34429_13326', '', ( #51 ) ) ;
#125 = AXIS2_PLACEMENT_3D ( 'NONE', #138, #127, #37 ) ;
#126 = CARTESIAN_POINT ( 'NONE',  ( 25.00000000000000000, 3.061616997868383043E-15, 0.0000000000000000000 ) ) ;
#127 = DIRECTION ( 'NONE',  ( 0.0000000000000000000, 0.0000000000000000000, 1.000000000000000000 ) ) ;
#128 = ORIENTED_EDGE ( 'NONE', *, *, #33, .T. ) ;
#129 = ORIENTED_EDGE ( 'NONE', *, *, #117, .F. ) ;
#130 = CIRCLE ( 'NONE', #50, 25.00000000000000000 ) ;
#131 = CC_DESIGN_APPROVAL ( #132, ( #144 ) ) ;
#132 = APPROVAL ( #8, 'UNSPECIFIED' ) ;
#133 = EDGE_LOOP ( 'NONE', ( #156, #129, #71, #128 ) ) ;
#134 = FACE_OUTER_BOUND ( 'NONE', #167, .T. ) ;
#135 = DATE_AND_TIME ( #169, #32 ) ;
#136 = AXIS2_PLACEMENT_3D ( 'NONE', #115, #155, #103 ) ;
#137 = DIRECTION ( 'NONE',  ( -1.000000000000000000, 0.0000000000000000000, 0.0000000000000000000 ) ) ;
#138 = CARTESIAN_POINT ( 'NONE',  ( 0.0000000000000000000, 0.0000000000000000000, 0.0000000000000000000 ) ) ;
#139 = CARTESIAN_POINT ( 'NONE',  ( 25.00000000000000000, 3.061616997868383043E-15, 3.000000000000000000 ) ) ;
#140 = APPROVAL_ROLE ( '' ) ;
#141 = AXIS2_PLACEMENT_3D ( 'NONE', #65, #48, #161 ) ;
#142 = APPROVAL_DATE_TIME ( #135, #92 ) ;
#143 = VERTEX_POINT ( 'NONE', #126 ) ;
#144 = SECURITY_CLASSIFICATION ( '', '', #68 ) ;
#145 = ORIENTED_EDGE ( 'NONE', *, *, #4, .T. ) ;
#146 = APPLICATION_PROTOCOL_DEFINITION ( 'international standard', 'config_control_design', 1994, #91 ) ;
#147 = PERSON_AND_ORGANIZATION ( #64, #41 ) ;
#148 = AXIS2_PLACEMENT_3D ( 'NONE', #112, #110, #137 ) ;
#149 = CC_DESIGN_APPROVAL ( #92, ( #119 ) ) ;
#150 = PERSON_AND_ORGANIZATION ( #64, #41 ) ;
#151 = ORIENTED_EDGE ( 'NONE', *, *, #25, .T. ) ;
#152 = APPLICATION_CONTEXT ( 'configuration controlled 3d designs of mechanical parts and assemblies' ) ;
#153 = CARTESIAN_POINT ( 'NONE',  ( -25.00000000000000000, 0.0000000000000000000, 0.0000000000000000000 ) ) ;
#154 = DIRECTION ( 'NONE',  ( -0.0000000000000000000, -0.0000000000000000000, -1.000000000000000000 ) ) ;
#155 = DIRECTION ( 'NONE',  ( 0.0000000000000000000, 0.0000000000000000000, 1.000000000000000000 ) ) ;
#156 = ORIENTED_EDGE ( 'NONE', *, *, #4, .F. ) ;
#157 = CYLINDRICAL_SURFACE ( 'NONE', #19, 25.00000000000000000 ) ;
#158 = PRODUCT_DEFINITION_SHAPE ( 'NONE', 'NONE',  #85 ) ;
#159 = EDGE_LOOP ( 'NONE', ( #81, #44 ) ) ;
#160 = PERSON_AND_ORGANIZATION_ROLE ( 'creator' ) ;
#161 = DIRECTION ( 'NONE',  ( 1.000000000000000000, 0.0000000000000000000, -0.0000000000000000000 ) ) ;
#162 =( NAMED_UNIT ( * ) PLANE_ANGLE_UNIT ( ) SI_UNIT ( $, .RADIAN. ) );
#163 = ORIENTED_EDGE ( 'NONE', *, *, #170, .F. ) ;
#164 = CALENDAR_DATE ( 2020, 3, 11 ) ;
#165 = DIRECTION ( 'NONE',  ( 1.000000000000000000, 0.0000000000000000000, -0.0000000000000000000 ) ) ;
#166 = DIRECTION ( 'NONE',  ( -1.000000000000000000, 0.0000000000000000000, 0.0000000000000000000 ) ) ;
#167 = EDGE_LOOP ( 'NONE', ( #10, #5 ) ) ;
#168 = APPROVAL_PERSON_ORGANIZATION ( #26, #47, #17 ) ;
#169 = CALENDAR_DATE ( 2020, 3, 11 ) ;
#170 = EDGE_CURVE ( 'NONE', #90, #93, #75, .T. ) ;
#171 = CIRCLE ( 'NONE', #61, 25.00000000000000000 ) ;
#172 = COORDINATED_UNIVERSAL_TIME_OFFSET ( 5, 0, .BEHIND. ) ;
#173 = CARTESIAN_POINT ( 'NONE',  ( -25.00000000000000000, 0.0000000000000000000, 3.000000000000000000 ) ) ;
#174 = CC_DESIGN_PERSON_AND_ORGANIZATION_ASSIGNMENT ( #107, #84, ( #119 ) ) ;
#175 = CARTESIAN_POINT ( 'NONE',  ( -25.00000000000000000, 0.0000000000000000000, 3.000000000000000000 ) ) ;
ENDSEC;
END-ISO-10303-21;
