ISO-10303-21;
HEADER;
FILE_DESCRIPTION (( 'STEP AP214' ),
    '1' );
FILE_NAME ('4782-E0W.STEP',
    '2009-12-21T17:04:42',
    ( ' ' ),
    ( ' ' ),
    'SwSTEP 2.0',
    'SolidWorks 2009',
    '' );
FILE_SCHEMA (( 'AUTOMOTIVE_DESIGN' ));
ENDSEC;

DATA;
#1 =( LENGTH_UNIT ( ) NAMED_UNIT ( * ) SI_UNIT ( .MILLI., .METRE. ) );
#2 = CARTESIAN_POINT ( 'NONE',  ( 0.0000000000000000000, 0.0000000000000000000, 2.795878800326650400 ) ) ;
#3 = CIRCLE ( 'NONE', #4, 12.69999999999999900 ) ;
#4 = AXIS2_PLACEMENT_3D ( 'NONE', #2, #7, #5 ) ;
#5 = DIRECTION ( 'NONE',  ( 1.000000000000000000, 0.0000000000000000000, 0.0000000000000000000 ) ) ;
#6 =( NAMED_UNIT ( * ) SI_UNIT ( $, .STERADIAN. ) SOLID_ANGLE_UNIT ( ) );
#7 = DIRECTION ( 'NONE',  ( -0.0000000000000000000, -0.0000000000000000000, 1.000000000000000000 ) ) ;
#8 = PRESENTATION_LAYER_ASSIGNMENT (  '', '', ( #132 ) ) ;
#9 = MECHANICAL_DESIGN_GEOMETRIC_PRESENTATION_REPRESENTATION (  '', ( #132 ), #178 ) ;
#10 = VERTEX_POINT ( 'NONE', #64 ) ;
#11 = EDGE_CURVE ( 'NONE', #23, #10, #18, .T. ) ;
#12 = MANIFOLD_SOLID_BREP ( 'NONE', #36 ) ;
#13 = EDGE_CURVE ( 'NONE', #80, #51, #3, .T. ) ;
#14 = ORIENTED_EDGE ( 'NONE', *, *, #25, .T. ) ;
#15 = ORIENTED_EDGE ( 'NONE', *, *, #77, .F. ) ;
#16 = ORIENTED_EDGE ( 'NONE', *, *, #28, .F. ) ;
#17 =( GEOMETRIC_REPRESENTATION_CONTEXT ( 3 ) GLOBAL_UNCERTAINTY_ASSIGNED_CONTEXT ( ( #62 ) ) GLOBAL_UNIT_ASSIGNED_CONTEXT ( ( #70, #61, #60 ) ) REPRESENTATION_CONTEXT ( 'NONE', 'WORKASPACE' ) );
#18 = CIRCLE ( 'NONE', #47, 12.69999999999999900 ) ;
#19 = COLOUR_RGB ( '',0.7960784313725489700, 0.8235294117647058400, 0.9372549019607843100 ) ;
#20 = ORIENTED_EDGE ( 'NONE', *, *, #21, .F. ) ;
#21 = EDGE_CURVE ( 'NONE', #75, #23, #129, .T. ) ;
#22 = ORIENTED_EDGE ( 'NONE', *, *, #53, .F. ) ;
#23 = VERTEX_POINT ( 'NONE', #97 ) ;
#24 = ORIENTED_EDGE ( 'NONE', *, *, #25, .F. ) ;
#25 = EDGE_CURVE ( 'NONE', #26, #10, #82, .T. ) ;
#26 = VERTEX_POINT ( 'NONE', #96 ) ;
#27 = ORIENTED_EDGE ( 'NONE', *, *, #77, .T. ) ;
#28 = EDGE_CURVE ( 'NONE', #75, #66, #86, .T. ) ;
#29 = PRESENTATION_LAYER_ASSIGNMENT (  '', '', ( #30 ) ) ;
#30 = STYLED_ITEM ( 'NONE', ( #31 ), #12 ) ;
#31 = PRESENTATION_STYLE_ASSIGNMENT (( #32 ) ) ;
#32 = SURFACE_STYLE_USAGE ( .BOTH. , #33 ) ;
#33 = SURFACE_SIDE_STYLE ('',( #42 ) ) ;
#34 = ADVANCED_FACE ( 'NONE', ( #110 ), #157, .F. ) ;
#35 = EDGE_LOOP ( 'NONE', ( #16, #55 ) ) ;
#36 = CLOSED_SHELL ( 'NONE', ( #67, #73, #65, #34, #59 ) ) ;
#37 = ORIENTED_EDGE ( 'NONE', *, *, #69, .F. ) ;
#38 = ORIENTED_EDGE ( 'NONE', *, *, #41, .F. ) ;
#39 = ORIENTED_EDGE ( 'NONE', *, *, #78, .T. ) ;
#40 = EDGE_LOOP ( 'NONE', ( #74, #79, #22, #54, #20 ) ) ;
#41 = EDGE_CURVE ( 'NONE', #66, #80, #154, .T. ) ;
#42 = SURFACE_STYLE_FILL_AREA ( #43 ) ;
#43 = FILL_AREA_STYLE ('',( #44 ) ) ;
#44 = FILL_AREA_STYLE_COLOUR ( '', #19 ) ;
#45 = DIRECTION ( 'NONE',  ( 1.000000000000000000, 0.0000000000000000000, 0.0000000000000000000 ) ) ;
#46 = DIRECTION ( 'NONE',  ( -0.0000000000000000000, -0.0000000000000000000, 1.000000000000000000 ) ) ;
#47 = AXIS2_PLACEMENT_3D ( 'NONE', #63, #46, #45 ) ;
#48 =( NAMED_UNIT ( * ) PLANE_ANGLE_UNIT ( ) SI_UNIT ( $, .RADIAN. ) );
#49 = ORIENTED_EDGE ( 'NONE', *, *, #21, .T. ) ;
#50 = ORIENTED_EDGE ( 'NONE', *, *, #13, .F. ) ;
#51 = VERTEX_POINT ( 'NONE', #101 ) ;
#52 = ORIENTED_EDGE ( 'NONE', *, *, #69, .T. ) ;
#53 = EDGE_CURVE ( 'NONE', #10, #80, #108, .T. ) ;
#54 = ORIENTED_EDGE ( 'NONE', *, *, #11, .F. ) ;
#55 = ORIENTED_EDGE ( 'NONE', *, *, #78, .F. ) ;
#56 = ORIENTED_EDGE ( 'NONE', *, *, #13, .T. ) ;
#57 = ORIENTED_EDGE ( 'NONE', *, *, #53, .T. ) ;
#58 = EDGE_LOOP ( 'NONE', ( #38, #39, #49, #37, #50 ) ) ;
#59 = ADVANCED_FACE ( 'NONE', ( #103 ), #145, .T. ) ;
#60 =( NAMED_UNIT ( * ) SI_UNIT ( $, .STERADIAN. ) SOLID_ANGLE_UNIT ( ) );
#61 =( NAMED_UNIT ( * ) PLANE_ANGLE_UNIT ( ) SI_UNIT ( $, .RADIAN. ) );
#62 = UNCERTAINTY_MEASURE_WITH_UNIT (LENGTH_MEASURE( 1.000000000000000100E-005 ), #70, 'distance_accuracy_value', 'NONE');
#63 = CARTESIAN_POINT ( 'NONE',  ( 0.0000000000000000000, 0.0000000000000000000, 2.795878800326650400 ) ) ;
#64 = CARTESIAN_POINT ( 'NONE',  ( 0.0000000000000000000, 12.70000000000000300, 2.795878800326641500 ) ) ;
#65 = ADVANCED_FACE ( 'NONE', ( #143 ), #162, .F. ) ;
#66 = VERTEX_POINT ( 'NONE', #169 ) ;
#67 = ADVANCED_FACE ( 'NONE', ( #183 ), #185, .T. ) ;
#68 = EDGE_LOOP ( 'NONE', ( #15, #14, #57, #56 ) ) ;
#69 = EDGE_CURVE ( 'NONE', #51, #23, #217, .T. ) ;
#70 =( LENGTH_UNIT ( ) NAMED_UNIT ( * ) SI_UNIT ( .MILLI., .METRE. ) );
#71 = MECHANICAL_DESIGN_GEOMETRIC_PRESENTATION_REPRESENTATION (  '', ( #30 ), #17 ) ;
#72 = ORIENTED_EDGE ( 'NONE', *, *, #11, .T. ) ;
#73 = ADVANCED_FACE ( 'NONE', ( #204 ), #159, .F. ) ;
#74 = ORIENTED_EDGE ( 'NONE', *, *, #28, .T. ) ;
#75 = VERTEX_POINT ( 'NONE', #202 ) ;
#76 = EDGE_LOOP ( 'NONE', ( #24, #27, #52, #72 ) ) ;
#77 = EDGE_CURVE ( 'NONE', #26, #51, #201, .T. ) ;
#78 = EDGE_CURVE ( 'NONE', #66, #75, #210, .T. ) ;
#79 = ORIENTED_EDGE ( 'NONE', *, *, #41, .T. ) ;
#80 = VERTEX_POINT ( 'NONE', #226 ) ;
#81 = STYLED_ITEM ( 'NONE', ( #111 ), #34 ) ;
#82 = CIRCLE ( 'NONE', #112, 51.46000000000000800 ) ;
#83 = DIRECTION ( 'NONE',  ( -0.0000000000000000000, -0.0000000000000000000, 1.000000000000000000 ) ) ;
#84 = COLOUR_RGB ( '',0.9568627450980391500, 0.9490196078431372100, 0.9607843137254902200 ) ;
#85 =( LENGTH_UNIT ( ) NAMED_UNIT ( * ) SI_UNIT ( .MILLI., .METRE. ) );
#86 = CIRCLE ( 'NONE', #102, 12.69999999999999900 ) ;
#87 =( NAMED_UNIT ( * ) SI_UNIT ( $, .STERADIAN. ) SOLID_ANGLE_UNIT ( ) );
#88 = SURFACE_SIDE_STYLE ('',( #89 ) ) ;
#89 = SURFACE_STYLE_FILL_AREA ( #124 ) ;
#90 =( LENGTH_UNIT ( ) NAMED_UNIT ( * ) SI_UNIT ( .MILLI., .METRE. ) );
#91 = DIRECTION ( 'NONE',  ( 1.000000000000000000, 0.0000000000000000000, 0.0000000000000000000 ) ) ;
#92 = CARTESIAN_POINT ( 'NONE',  ( 0.0000000000000000000, 0.0000000000000000000, 52.66412119967334600 ) ) ;
#93 = DIRECTION ( 'NONE',  ( 0.0000000000000000000, 0.0000000000000000000, -1.000000000000000000 ) ) ;
#94 = FILL_AREA_STYLE_COLOUR ( '', #84 ) ;
#95 = DIRECTION ( 'NONE',  ( 1.000000000000000000, 0.0000000000000000000, 0.0000000000000000000 ) ) ;
#96 = CARTESIAN_POINT ( 'NONE',  ( 0.0000000000000000000, 3.150912148384976700E-015, 1.204121199673342700 ) ) ;
#97 = CARTESIAN_POINT ( 'NONE',  ( 12.69999999999999900, 0.0000000000000000000, 2.795878800326650400 ) ) ;
#98 = MECHANICAL_DESIGN_GEOMETRIC_PRESENTATION_REPRESENTATION (  '', ( #81 ), #125 ) ;
#99 = FILL_AREA_STYLE_COLOUR ( '', #100 ) ;
#100 = COLOUR_RGB ( '',0.9568627450980391500, 0.9490196078431372100, 0.9607843137254902200 ) ;
#101 = CARTESIAN_POINT ( 'NONE',  ( -1.555250069354419500E-015, -12.70000000000000300, 2.795878800326641500 ) ) ;
#102 = AXIS2_PLACEMENT_3D ( 'NONE', #126, #83, #91 ) ;
#103 = FACE_OUTER_BOUND ( 'NONE', #58, .T. ) ;
#104 = DIRECTION ( 'NONE',  ( 1.000000000000000000, 0.0000000000000000000, 0.0000000000000000000 ) ) ;
#105 = DIRECTION ( 'NONE',  ( -0.0000000000000000000, -0.0000000000000000000, 1.000000000000000000 ) ) ;
#106 = CARTESIAN_POINT ( 'NONE',  ( 0.0000000000000000000, 0.0000000000000000000, 2.795878800326650400 ) ) ;
#107 = AXIS2_PLACEMENT_3D ( 'NONE', #106, #105, #104 ) ;
#108 = CIRCLE ( 'NONE', #107, 12.69999999999999900 ) ;
#109 = PRESENTATION_LAYER_ASSIGNMENT (  '', '', ( #81 ) ) ;
#110 = FACE_OUTER_BOUND ( 'NONE', #35, .T. ) ;
#111 = PRESENTATION_STYLE_ASSIGNMENT (( #113 ) ) ;
#112 = AXIS2_PLACEMENT_3D ( 'NONE', #92, #95, #93 ) ;
#113 = SURFACE_STYLE_USAGE ( .BOTH. , #88 ) ;
#114 = MECHANICAL_DESIGN_GEOMETRIC_PRESENTATION_REPRESENTATION (  '', ( #116 ), #122 ) ;
#115 = PRESENTATION_LAYER_ASSIGNMENT (  '', '', ( #116 ) ) ;
#116 = STYLED_ITEM ( 'NONE', ( #117 ), #59 ) ;
#117 = PRESENTATION_STYLE_ASSIGNMENT (( #118 ) ) ;
#118 = SURFACE_STYLE_USAGE ( .BOTH. , #119 ) ;
#119 = SURFACE_SIDE_STYLE ('',( #120 ) ) ;
#120 = SURFACE_STYLE_FILL_AREA ( #121 ) ;
#121 = FILL_AREA_STYLE ('',( #99 ) ) ;
#122 =( GEOMETRIC_REPRESENTATION_CONTEXT ( 3 ) GLOBAL_UNCERTAINTY_ASSIGNED_CONTEXT ( ( #123 ) ) GLOBAL_UNIT_ASSIGNED_CONTEXT ( ( #85, #128, #127 ) ) REPRESENTATION_CONTEXT ( 'NONE', 'WORKASPACE' ) );
#123 = UNCERTAINTY_MEASURE_WITH_UNIT (LENGTH_MEASURE( 1.000000000000000100E-005 ), #85, 'distance_accuracy_value', 'NONE');
#124 = FILL_AREA_STYLE ('',( #94 ) ) ;
#125 =( GEOMETRIC_REPRESENTATION_CONTEXT ( 3 ) GLOBAL_UNCERTAINTY_ASSIGNED_CONTEXT ( ( #150 ) ) GLOBAL_UNIT_ASSIGNED_CONTEXT ( ( #90, #130, #87 ) ) REPRESENTATION_CONTEXT ( 'NONE', 'WORKASPACE' ) );
#126 = CARTESIAN_POINT ( 'NONE',  ( 0.0000000000000000000, 0.0000000000000000000, -2.795878800326650400 ) ) ;
#127 =( NAMED_UNIT ( * ) SI_UNIT ( $, .STERADIAN. ) SOLID_ANGLE_UNIT ( ) );
#128 =( NAMED_UNIT ( * ) PLANE_ANGLE_UNIT ( ) SI_UNIT ( $, .RADIAN. ) );
#129 = LINE ( 'NONE', #149, #155 ) ;
#130 =( NAMED_UNIT ( * ) PLANE_ANGLE_UNIT ( ) SI_UNIT ( $, .RADIAN. ) );
#131 = DIRECTION ( 'NONE',  ( -0.0000000000000000000, -0.0000000000000000000, 1.000000000000000000 ) ) ;
#132 = STYLED_ITEM ( 'NONE', ( #133 ), #65 ) ;
#133 = PRESENTATION_STYLE_ASSIGNMENT (( #134 ) ) ;
#134 = SURFACE_STYLE_USAGE ( .BOTH. , #135 ) ;
#135 = SURFACE_SIDE_STYLE ('',( #136 ) ) ;
#136 = SURFACE_STYLE_FILL_AREA ( #137 ) ;
#137 = FILL_AREA_STYLE ('',( #144 ) ) ;
#138 = COLOUR_RGB ( '',0.9568627450980391500, 0.9490196078431372100, 0.9607843137254902200 ) ;
#139 = DIRECTION ( 'NONE',  ( 1.000000000000000000, 0.0000000000000000000, 0.0000000000000000000 ) ) ;
#140 = DIRECTION ( 'NONE',  ( -0.0000000000000000000, -0.0000000000000000000, 1.000000000000000000 ) ) ;
#141 = CARTESIAN_POINT ( 'NONE',  ( 0.0000000000000000000, 0.0000000000000000000, 8.221274470102674300 ) ) ;
#142 = AXIS2_PLACEMENT_3D ( 'NONE', #141, #140, #139 ) ;
#143 = FACE_OUTER_BOUND ( 'NONE', #68, .T. ) ;
#144 = FILL_AREA_STYLE_COLOUR ( '', #138 ) ;
#145 = CYLINDRICAL_SURFACE ( 'NONE', #142, 12.69999999999999900 ) ;
#146 = DIRECTION ( 'NONE',  ( 1.000000000000000000, 0.0000000000000000000, 0.0000000000000000000 ) ) ;
#147 = DIRECTION ( 'NONE',  ( 0.0000000000000000000, -0.0000000000000000000, 1.000000000000000000 ) ) ;
#148 = CARTESIAN_POINT ( 'NONE',  ( 0.0000000000000000000, 7.347880794884119700E-016, -2.795878800326650400 ) ) ;
#149 = CARTESIAN_POINT ( 'NONE',  ( 12.69999999999999900, 0.0000000000000000000, 8.221274470102674300 ) ) ;
#150 = UNCERTAINTY_MEASURE_WITH_UNIT (LENGTH_MEASURE( 1.000000000000000100E-005 ), #90, 'distance_accuracy_value', 'NONE');
#151 = DIRECTION ( 'NONE',  ( -0.0000000000000000000, -0.0000000000000000000, 1.000000000000000000 ) ) ;
#152 = VECTOR ( 'NONE', #151, 1000.000000000000000 ) ;
#153 = CARTESIAN_POINT ( 'NONE',  ( -12.69999999999999900, 1.555250069354419100E-015, 8.221274470102674300 ) ) ;
#154 = LINE ( 'NONE', #153, #152 ) ;
#155 = VECTOR ( 'NONE', #131, 1000.000000000000000 ) ;
#156 = AXIS2_PLACEMENT_3D ( 'NONE', #148, #147, #146 ) ;
#157 = PLANE ( 'NONE',  #156 ) ;
#158 = CARTESIAN_POINT ( 'NONE',  ( 0.0000000000000000000, 0.0000000000000000000, 52.66412119967334600 ) ) ;
#159 = SPHERICAL_SURFACE ( 'NONE', #200, 51.46000000000000800 ) ;
#160 =( NAMED_UNIT ( * ) SI_UNIT ( $, .STERADIAN. ) SOLID_ANGLE_UNIT ( ) );
#161 =( GEOMETRIC_REPRESENTATION_CONTEXT ( 3 ) GLOBAL_UNCERTAINTY_ASSIGNED_CONTEXT ( ( #165 ) ) GLOBAL_UNIT_ASSIGNED_CONTEXT ( ( #212, #164, #160 ) ) REPRESENTATION_CONTEXT ( 'NONE', 'WORKASPACE' ) );
#162 = SPHERICAL_SURFACE ( 'NONE', #207, 51.46000000000000800 ) ;
#163 =( NAMED_UNIT ( * ) PLANE_ANGLE_UNIT ( ) SI_UNIT ( $, .RADIAN. ) );
#164 =( NAMED_UNIT ( * ) PLANE_ANGLE_UNIT ( ) SI_UNIT ( $, .RADIAN. ) );
#165 = UNCERTAINTY_MEASURE_WITH_UNIT (LENGTH_MEASURE( 1.000000000000000100E-005 ), #212, 'distance_accuracy_value', 'NONE');
#166 = DIRECTION ( 'NONE',  ( -1.000000000000000000, 0.0000000000000000000, 0.0000000000000000000 ) ) ;
#167 = UNCERTAINTY_MEASURE_WITH_UNIT (LENGTH_MEASURE( 1.000000000000000100E-005 ), #1, 'distance_accuracy_value', 'NONE');
#168 =( NAMED_UNIT ( * ) PLANE_ANGLE_UNIT ( ) SI_UNIT ( $, .RADIAN. ) );
#169 = CARTESIAN_POINT ( 'NONE',  ( -12.69999999999999900, 1.555250069354419100E-015, -2.795878800326650400 ) ) ;
#170 = DIRECTION ( 'NONE',  ( 0.0000000000000000000, 1.000000000000000000, 0.0000000000000000000 ) ) ;
#171 = SURFACE_STYLE_FILL_AREA ( #172 ) ;
#172 = FILL_AREA_STYLE ('',( #182 ) ) ;
#173 = COLOUR_RGB ( '',0.9568627450980391500, 0.9490196078431372100, 0.9607843137254902200 ) ;
#174 = DIRECTION ( 'NONE',  ( -1.000000000000000000, 1.224606353822377300E-016, 0.0000000000000000000 ) ) ;
#175 = CARTESIAN_POINT ( 'NONE',  ( 0.0000000000000000000, 0.0000000000000000000, 52.66412119967334600 ) ) ;
#176 = AXIS2_PLACEMENT_3D ( 'NONE', #175, #174, #211 ) ;
#177 = CARTESIAN_POINT ( 'NONE',  ( 0.0000000000000000000, 0.0000000000000000000, -2.795878800326650400 ) ) ;
#178 =( GEOMETRIC_REPRESENTATION_CONTEXT ( 3 ) GLOBAL_UNCERTAINTY_ASSIGNED_CONTEXT ( ( #167 ) ) GLOBAL_UNIT_ASSIGNED_CONTEXT ( ( #1, #163, #218 ) ) REPRESENTATION_CONTEXT ( 'NONE', 'WORKASPACE' ) );
#179 = UNCERTAINTY_MEASURE_WITH_UNIT (LENGTH_MEASURE( 1.000000000000000100E-005 ), #219, 'distance_accuracy_value', 'NONE');
#180 =( NAMED_UNIT ( * ) SI_UNIT ( $, .STERADIAN. ) SOLID_ANGLE_UNIT ( ) );
#181 = AXIS2_PLACEMENT_3D ( 'NONE', #184, #206, #205 ) ;
#182 = FILL_AREA_STYLE_COLOUR ( '', #173 ) ;
#183 = FACE_OUTER_BOUND ( 'NONE', #40, .T. ) ;
#184 = CARTESIAN_POINT ( 'NONE',  ( 0.0000000000000000000, 0.0000000000000000000, 8.221274470102674300 ) ) ;
#185 = CYLINDRICAL_SURFACE ( 'NONE', #181, 12.69999999999999900 ) ;
#186 = PRESENTATION_STYLE_ASSIGNMENT (( #187 ) ) ;
#187 = SURFACE_STYLE_USAGE ( .BOTH. , #188 ) ;
#188 = SURFACE_SIDE_STYLE ('',( #171 ) ) ;
#189 =( GEOMETRIC_REPRESENTATION_CONTEXT ( 3 ) GLOBAL_UNCERTAINTY_ASSIGNED_CONTEXT ( ( #179 ) ) GLOBAL_UNIT_ASSIGNED_CONTEXT ( ( #219, #168, #180 ) ) REPRESENTATION_CONTEXT ( 'NONE', 'WORKASPACE' ) );
#190 = STYLED_ITEM ( 'NONE', ( #191 ), #73 ) ;
#191 = PRESENTATION_STYLE_ASSIGNMENT (( #192 ) ) ;
#192 = SURFACE_STYLE_USAGE ( .BOTH. , #193 ) ;
#193 = SURFACE_SIDE_STYLE ('',( #194 ) ) ;
#194 = SURFACE_STYLE_FILL_AREA ( #195 ) ;
#195 = FILL_AREA_STYLE ('',( #196 ) ) ;
#196 = FILL_AREA_STYLE_COLOUR ( '', #197 ) ;
#197 = COLOUR_RGB ( '',0.9568627450980391500, 0.9490196078431372100, 0.9607843137254902200 ) ;
#198 = DIRECTION ( 'NONE',  ( 0.0000000000000000000, 1.000000000000000000, 0.0000000000000000000 ) ) ;
#199 = DIRECTION ( 'NONE',  ( -1.000000000000000000, 0.0000000000000000000, 0.0000000000000000000 ) ) ;
#200 = AXIS2_PLACEMENT_3D ( 'NONE', #158, #199, #198 ) ;
#201 = CIRCLE ( 'NONE', #176, 51.46000000000000800 ) ;
#202 = CARTESIAN_POINT ( 'NONE',  ( 12.69999999999999900, 0.0000000000000000000, -2.795878800326650400 ) ) ;
#203 = CARTESIAN_POINT ( 'NONE',  ( 0.0000000000000000000, 0.0000000000000000000, 52.66412119967334600 ) ) ;
#204 = FACE_OUTER_BOUND ( 'NONE', #76, .T. ) ;
#205 = DIRECTION ( 'NONE',  ( 1.000000000000000000, 0.0000000000000000000, 0.0000000000000000000 ) ) ;
#206 = DIRECTION ( 'NONE',  ( -0.0000000000000000000, -0.0000000000000000000, 1.000000000000000000 ) ) ;
#207 = AXIS2_PLACEMENT_3D ( 'NONE', #203, #166, #170 ) ;
#208 = DIRECTION ( 'NONE',  ( -0.0000000000000000000, -0.0000000000000000000, 1.000000000000000000 ) ) ;
#209 = AXIS2_PLACEMENT_3D ( 'NONE', #177, #208, #227 ) ;
#210 = CIRCLE ( 'NONE', #209, 12.69999999999999900 ) ;
#211 = DIRECTION ( 'NONE',  ( -1.224606353822377000E-016, -1.000000000000000000, 0.0000000000000000000 ) ) ;
#212 =( LENGTH_UNIT ( ) NAMED_UNIT ( * ) SI_UNIT ( .MILLI., .METRE. ) );
#213 = DIRECTION ( 'NONE',  ( 1.000000000000000000, 0.0000000000000000000, 0.0000000000000000000 ) ) ;
#214 = DIRECTION ( 'NONE',  ( -0.0000000000000000000, -0.0000000000000000000, 1.000000000000000000 ) ) ;
#215 = CARTESIAN_POINT ( 'NONE',  ( 0.0000000000000000000, 0.0000000000000000000, 2.795878800326650400 ) ) ;
#216 = AXIS2_PLACEMENT_3D ( 'NONE', #215, #214, #213 ) ;
#217 = CIRCLE ( 'NONE', #216, 12.69999999999999900 ) ;
#218 =( NAMED_UNIT ( * ) SI_UNIT ( $, .STERADIAN. ) SOLID_ANGLE_UNIT ( ) );
#219 =( LENGTH_UNIT ( ) NAMED_UNIT ( * ) SI_UNIT ( .MILLI., .METRE. ) );
#220 = MECHANICAL_DESIGN_GEOMETRIC_PRESENTATION_REPRESENTATION (  '', ( #190 ), #189 ) ;
#221 = PRESENTATION_LAYER_ASSIGNMENT (  '', '', ( #190 ) ) ;
#222 = MECHANICAL_DESIGN_GEOMETRIC_PRESENTATION_REPRESENTATION (  '', ( #224 ), #161 ) ;
#223 = PRESENTATION_LAYER_ASSIGNMENT (  '', '', ( #224 ) ) ;
#224 = STYLED_ITEM ( 'NONE', ( #186 ), #67 ) ;
#225 =( LENGTH_UNIT ( ) NAMED_UNIT ( * ) SI_UNIT ( .MILLI., .METRE. ) );
#226 = CARTESIAN_POINT ( 'NONE',  ( -12.69999999999999900, 1.555250069354419100E-015, 2.795878800326650400 ) ) ;
#227 = DIRECTION ( 'NONE',  ( 1.000000000000000000, 0.0000000000000000000, 0.0000000000000000000 ) ) ;
#228 = AXIS2_PLACEMENT_3D ( 'NONE', #239, #229, #237 ) ;
#229 = DIRECTION ( 'NONE',  ( 0.0000000000000000000, 0.0000000000000000000, 1.000000000000000000 ) ) ;
#230 =( GEOMETRIC_REPRESENTATION_CONTEXT ( 3 ) GLOBAL_UNCERTAINTY_ASSIGNED_CONTEXT ( ( #232 ) ) GLOBAL_UNIT_ASSIGNED_CONTEXT ( ( #225, #48, #6 ) ) REPRESENTATION_CONTEXT ( 'NONE', 'WORKASPACE' ) );
#231 =( LENGTH_UNIT ( ) NAMED_UNIT ( * ) SI_UNIT ( .MILLI., .METRE. ) );
#232 = UNCERTAINTY_MEASURE_WITH_UNIT (LENGTH_MEASURE( 1.000000000000000100E-005 ), #225, 'distance_accuracy_value', 'NONE');
#233 = ADVANCED_BREP_SHAPE_REPRESENTATION ( '4782-E0W', ( #12, #228 ), #230 ) ;
#234 = MECHANICAL_DESIGN_GEOMETRIC_PRESENTATION_REPRESENTATION (  '', ( #244 ), #261 ) ;
#235 = PRESENTATION_LAYER_ASSIGNMENT (  '', '', ( #244 ) ) ;
#236 = SHAPE_DEFINITION_REPRESENTATION ( #255, #233 ) ;
#237 = DIRECTION ( 'NONE',  ( 1.000000000000000000, 0.0000000000000000000, 0.0000000000000000000 ) ) ;
#238 = UNCERTAINTY_MEASURE_WITH_UNIT (LENGTH_MEASURE( 1.000000000000000100E-005 ), #231, 'distance_accuracy_value', 'NONE');
#239 = CARTESIAN_POINT ( 'NONE',  ( 0.0000000000000000000, 0.0000000000000000000, 0.0000000000000000000 ) ) ;
#240 = APPLICATION_CONTEXT ( 'automotive_design' ) ;
#241 =( NAMED_UNIT ( * ) SI_UNIT ( $, .STERADIAN. ) SOLID_ANGLE_UNIT ( ) );
#242 = FILL_AREA_STYLE_COLOUR ( '', #243 ) ;
#243 = COLOUR_RGB ( '',0.7960784313725489700, 0.8235294117647058400, 0.9372549019607843100 ) ;
#244 = STYLED_ITEM ( 'NONE', ( #245 ), #233 ) ;
#245 = PRESENTATION_STYLE_ASSIGNMENT (( #246 ) ) ;
#246 = SURFACE_STYLE_USAGE ( .BOTH. , #247 ) ;
#247 = SURFACE_SIDE_STYLE ('',( #248 ) ) ;
#248 = SURFACE_STYLE_FILL_AREA ( #249 ) ;
#249 = FILL_AREA_STYLE ('',( #242 ) ) ;
#250 = APPLICATION_PROTOCOL_DEFINITION ( 'draft international standard', 'automotive_design', 1998, #251 ) ;
#251 = APPLICATION_CONTEXT ( 'automotive_design' ) ;
#252 = PRODUCT ( '4782-E0W', '4782-E0W', '', ( #253 ) ) ;
#253 = PRODUCT_CONTEXT ( 'NONE', #240, 'mechanical' ) ;
#254 = APPLICATION_PROTOCOL_DEFINITION ( 'draft international standard', 'automotive_design', 1998, #240 ) ;
#255 = PRODUCT_DEFINITION_SHAPE ( 'NONE', 'NONE',  #258 ) ;
#256 = PRODUCT_RELATED_PRODUCT_CATEGORY ( 'part', '', ( #252 ) ) ;
#257 = PRODUCT_DEFINITION_FORMATION_WITH_SPECIFIED_SOURCE ( 'ANY', '', #252, .NOT_KNOWN. ) ;
#258 = PRODUCT_DEFINITION ( 'UNKNOWN', '', #257, #259 ) ;
#259 = PRODUCT_DEFINITION_CONTEXT ( 'detailed design', #251, 'design' ) ;
#260 =( NAMED_UNIT ( * ) PLANE_ANGLE_UNIT ( ) SI_UNIT ( $, .RADIAN. ) );
#261 =( GEOMETRIC_REPRESENTATION_CONTEXT ( 3 ) GLOBAL_UNCERTAINTY_ASSIGNED_CONTEXT ( ( #238 ) ) GLOBAL_UNIT_ASSIGNED_CONTEXT ( ( #231, #260, #241 ) ) REPRESENTATION_CONTEXT ( 'NONE', 'WORKASPACE' ) );
ENDSEC;
END-ISO-10303-21;
