ISO-10303-21;
HEADER;
FILE_DESCRIPTION (( 'STEP AP203' ),
    '1' );
FILE_NAME ('Web Model 17212_17213.step',
    '2021-04-05T17:56:56',
    ( '' ),
    ( '' ),
    'SwSTEP 2.0',
    'SolidWorks 2018',
    '' );
FILE_SCHEMA (( 'CONFIG_CONTROL_DESIGN' ));
ENDSEC;

DATA;
#1 = ORIENTED_EDGE ( 'NONE', *, *, #145, .T. ) ;
#2 = CARTESIAN_POINT ( 'NONE',  ( 6.349999999999999645, 7.776507174585692163E-16, 0.000000000000000000 ) ) ;
#3 = CARTESIAN_POINT ( 'NONE',  ( 0.000000000000000000, 0.000000000000000000, 1.000000000000000000 ) ) ;
#4 = LOCAL_TIME ( 13, 56, 56.00000000000000000, #227 ) ;
#5 = DIRECTION ( 'NONE',  ( -1.000000000000000000, 0.000000000000000000, 0.000000000000000000 ) ) ;
#6 = VECTOR ( 'NONE', #116, 1000.000000000000000 ) ;
#7 = UNCERTAINTY_MEASURE_WITH_UNIT (LENGTH_MEASURE( 1.000000000000000082E-05 ), #242, 'distance_accuracy_value', 'NONE');
#8 = ORIENTED_EDGE ( 'NONE', *, *, #205, .T. ) ;
#9 = AXIS2_PLACEMENT_3D ( 'NONE', #226, #131, #224 ) ;
#10 = AXIS2_PLACEMENT_3D ( 'NONE', #67, #46, #43 ) ;
#11 = PRODUCT ( 'Web Model 17212_17213', 'Web Model 17212_17213', '', ( #133 ) ) ;
#12 = CYLINDRICAL_SURFACE ( 'NONE', #118, 12.69999999999999929 ) ;
#13 = DIRECTION ( 'NONE',  ( -0.000000000000000000, -0.000000000000000000, -1.000000000000000000 ) ) ;
#14 = CARTESIAN_POINT ( 'NONE',  ( -6.349999999999999645, 0.000000000000000000, 1.000000000000000000 ) ) ;
#15 = DIRECTION ( 'NONE',  ( 0.000000000000000000, 0.000000000000000000, 1.000000000000000000 ) ) ;
#16 = EDGE_LOOP ( 'NONE', ( #238, #128 ) ) ;
#17 = APPROVAL_STATUS ( 'not_yet_approved' ) ;
#18 = LOCAL_TIME ( 13, 56, 56.00000000000000000, #49 ) ;
#19 = DIRECTION ( 'NONE',  ( 0.000000000000000000, 0.000000000000000000, 1.000000000000000000 ) ) ;
#20 = VERTEX_POINT ( 'NONE', #85 ) ;
#21 = CARTESIAN_POINT ( 'NONE',  ( 12.69999999999999929, 1.555301434917138433E-15, 1.000000000000000000 ) ) ;
#22 = DIRECTION ( 'NONE',  ( 1.000000000000000000, 0.000000000000000000, -0.000000000000000000 ) ) ;
#23 = EDGE_CURVE ( 'NONE', #20, #196, #72, .T. ) ;
#24 = FACE_OUTER_BOUND ( 'NONE', #138, .T. ) ;
#25 = ORIENTED_EDGE ( 'NONE', *, *, #214, .F. ) ;
#26 = VECTOR ( 'NONE', #87, 1000.000000000000000 ) ;
#27 = EDGE_CURVE ( 'NONE', #223, #148, #127, .T. ) ;
#28 = ORIENTED_EDGE ( 'NONE', *, *, #221, .F. ) ;
#29 = CC_DESIGN_PERSON_AND_ORGANIZATION_ASSIGNMENT ( #157, #130, ( #211 ) ) ;
#30 = PERSON_AND_ORGANIZATION_ROLE ( 'creator' ) ;
#31 = PLANE ( 'NONE',  #121 ) ;
#32 = CIRCLE ( 'NONE', #9, 12.69999999999999929 ) ;
#33 = LINE ( 'NONE', #21, #26 ) ;
#34 = DIRECTION ( 'NONE',  ( 1.000000000000000000, 0.000000000000000000, 0.000000000000000000 ) ) ;
#35 = APPROVAL_STATUS ( 'not_yet_approved' ) ;
#36 = APPROVAL_DATE_TIME ( #200, #161 ) ;
#37 = EDGE_LOOP ( 'NONE', ( #123, #240 ) ) ;
#38 = EDGE_CURVE ( 'NONE', #196, #189, #33, .T. ) ;
#39 = PRODUCT_DEFINITION_SHAPE ( 'NONE', 'NONE',  #42 ) ;
#40 = APPROVAL_PERSON_ORGANIZATION ( #91, #66, #60 ) ;
#41 = EDGE_LOOP ( 'NONE', ( #86, #166, #175, #64 ) ) ;
#42 = PRODUCT_DEFINITION ( 'UNKNOWN', '', #211, #53 ) ;
#43 = DIRECTION ( 'NONE',  ( 1.000000000000000000, 0.000000000000000000, 0.000000000000000000 ) ) ;
#44 = DIRECTION ( 'NONE',  ( -0.000000000000000000, -0.000000000000000000, -1.000000000000000000 ) ) ;
#45 = AXIS2_PLACEMENT_3D ( 'NONE', #140, #217, #124 ) ;
#46 = DIRECTION ( 'NONE',  ( 0.000000000000000000, 0.000000000000000000, 1.000000000000000000 ) ) ;
#47 = DATE_AND_TIME ( #99, #51 ) ;
#48 = CC_DESIGN_APPROVAL ( #100, ( #144 ) ) ;
#49 = COORDINATED_UNIVERSAL_TIME_OFFSET ( 5, 0, .BEHIND. ) ;
#50 = EDGE_LOOP ( 'NONE', ( #89, #232 ) ) ;
#51 = LOCAL_TIME ( 13, 56, 56.00000000000000000, #192 ) ;
#52 = AXIS2_PLACEMENT_3D ( 'NONE', #3, #104, #162 ) ;
#53 = DESIGN_CONTEXT ( 'detailed design', #155, 'design' ) ;
#54 = CYLINDRICAL_SURFACE ( 'NONE', #235, 6.349999999999999645 ) ;
#55 = CARTESIAN_POINT ( 'NONE',  ( 0.000000000000000000, 0.000000000000000000, 1.000000000000000000 ) ) ;
#56 = VERTEX_POINT ( 'NONE', #109 ) ;
#57 = DIRECTION ( 'NONE',  ( 1.000000000000000000, 0.000000000000000000, -0.000000000000000000 ) ) ;
#58 = DIRECTION ( 'NONE',  ( -0.000000000000000000, -0.000000000000000000, -1.000000000000000000 ) ) ;
#59 = APPROVAL_DATE_TIME ( #187, #66 ) ;
#60 = APPROVAL_ROLE ( '' ) ;
#61 = EDGE_CURVE ( 'NONE', #71, #132, #228, .T. ) ;
#62 = LINE ( 'NONE', #171, #159 ) ;
#63 = ORIENTED_EDGE ( 'NONE', *, *, #27, .T. ) ;
#64 = ORIENTED_EDGE ( 'NONE', *, *, #110, .F. ) ;
#65 = DIRECTION ( 'NONE',  ( -1.000000000000000000, 0.000000000000000000, 0.000000000000000000 ) ) ;
#66 = APPROVAL ( #35, 'UNSPECIFIED' ) ;
#67 = CARTESIAN_POINT ( 'NONE',  ( 0.000000000000000000, 0.000000000000000000, 0.000000000000000000 ) ) ;
#68 = CC_DESIGN_SECURITY_CLASSIFICATION ( #144, ( #211 ) ) ;
#69 = AXIS2_PLACEMENT_3D ( 'NONE', #105, #19, #164 ) ;
#70 = PERSON_AND_ORGANIZATION ( #93, #204 ) ;
#71 = VERTEX_POINT ( 'NONE', #184 ) ;
#72 = CIRCLE ( 'NONE', #239, 12.69999999999999929 ) ;
#73 = AXIS2_PLACEMENT_3D ( 'NONE', #172, #195, #34 ) ;
#74 = FACE_OUTER_BOUND ( 'NONE', #114, .T. ) ;
#75 = MANIFOLD_SOLID_BREP ( 'Boss-Extrude1', #103 ) ;
#76 = ORIENTED_EDGE ( 'NONE', *, *, #191, .T. ) ;
#77 = CARTESIAN_POINT ( 'NONE',  ( 0.000000000000000000, 0.000000000000000000, 0.000000000000000000 ) ) ;
#78 =( NAMED_UNIT ( * ) PLANE_ANGLE_UNIT ( ) SI_UNIT ( $, .RADIAN. ) );
#79 = FACE_OUTER_BOUND ( 'NONE', #41, .T. ) ;
#80 = APPLICATION_PROTOCOL_DEFINITION ( 'international standard', 'config_control_design', 1994, #151 ) ;
#81 = CC_DESIGN_APPROVAL ( #66, ( #211 ) ) ;
#82 = PERSON_AND_ORGANIZATION_ROLE ( 'classification_officer' ) ;
#83 = DIRECTION ( 'NONE',  ( 1.000000000000000000, 0.000000000000000000, 0.000000000000000000 ) ) ;
#84 = AXIS2_PLACEMENT_3D ( 'NONE', #234, #44, #65 ) ;
#85 = CARTESIAN_POINT ( 'NONE',  ( -12.69999999999999929, 0.000000000000000000, 1.000000000000000000 ) ) ;
#86 = ORIENTED_EDGE ( 'NONE', *, *, #205, .F. ) ;
#87 = DIRECTION ( 'NONE',  ( -0.000000000000000000, -0.000000000000000000, -1.000000000000000000 ) ) ;
#88 = APPROVAL_PERSON_ORGANIZATION ( #143, #100, #139 ) ;
#89 = ORIENTED_EDGE ( 'NONE', *, *, #23, .T. ) ;
#90 = FACE_OUTER_BOUND ( 'NONE', #193, .T. ) ;
#91 = PERSON_AND_ORGANIZATION ( #93, #204 ) ;
#92 = CC_DESIGN_DATE_AND_TIME_ASSIGNMENT ( #47, #213, ( #144 ) ) ;
#93 = PERSON ( 'UNSPECIFIED', 'UNSPECIFIED', 'UNSPECIFIED', ('UNSPECIFIED'), ('UNSPECIFIED'), ('UNSPECIFIED') ) ;
#94 = ORIENTED_EDGE ( 'NONE', *, *, #38, .T. ) ;
#95 =( GEOMETRIC_REPRESENTATION_CONTEXT ( 3 ) GLOBAL_UNCERTAINTY_ASSIGNED_CONTEXT ( ( #7 ) ) GLOBAL_UNIT_ASSIGNED_CONTEXT ( ( #242, #78, #246 ) ) REPRESENTATION_CONTEXT ( 'NONE', 'WORKASPACE' ) );
#96 = DIRECTION ( 'NONE',  ( -0.000000000000000000, -0.000000000000000000, -1.000000000000000000 ) ) ;
#97 = CARTESIAN_POINT ( 'NONE',  ( 12.69999999999999929, 1.555301434917138433E-15, 0.000000000000000000 ) ) ;
#98 = EDGE_CURVE ( 'NONE', #132, #71, #119, .T. ) ;
#99 = CALENDAR_DATE ( 2021, 5, 4 ) ;
#100 = APPROVAL ( #136, 'UNSPECIFIED' ) ;
#101 = ADVANCED_FACE ( 'NONE', ( #79 ), #194, .F. ) ;
#102 = PERSON_AND_ORGANIZATION ( #93, #204 ) ;
#103 = CLOSED_SHELL ( 'NONE', ( #216, #202, #181, #122, #120, #101 ) ) ;
#104 = DIRECTION ( 'NONE',  ( 0.000000000000000000, 0.000000000000000000, 1.000000000000000000 ) ) ;
#105 = CARTESIAN_POINT ( 'NONE',  ( 0.000000000000000000, 0.000000000000000000, 0.000000000000000000 ) ) ;
#106 = CARTESIAN_POINT ( 'NONE',  ( 0.000000000000000000, 0.000000000000000000, 1.000000000000000000 ) ) ;
#107 = CC_DESIGN_PERSON_AND_ORGANIZATION_ASSIGNMENT ( #206, #244, ( #211 ) ) ;
#108 = PERSON_AND_ORGANIZATION ( #93, #204 ) ;
#109 = CARTESIAN_POINT ( 'NONE',  ( -12.69999999999999929, 0.000000000000000000, 0.000000000000000000 ) ) ;
#110 = EDGE_CURVE ( 'NONE', #148, #223, #165, .T. ) ;
#111 = LOCAL_TIME ( 13, 56, 56.00000000000000000, #231 ) ;
#112 = FACE_BOUND ( 'NONE', #37, .T. ) ;
#113 = PRODUCT_RELATED_PRODUCT_CATEGORY ( 'detail', '', ( #11 ) ) ;
#114 = EDGE_LOOP ( 'NONE', ( #245, #8, #170, #25 ) ) ;
#115 = CARTESIAN_POINT ( 'NONE',  ( -6.349999999999999645, 0.000000000000000000, 0.000000000000000000 ) ) ;
#116 = DIRECTION ( 'NONE',  ( -0.000000000000000000, -0.000000000000000000, -1.000000000000000000 ) ) ;
#117 = DIRECTION ( 'NONE',  ( -0.000000000000000000, -0.000000000000000000, -1.000000000000000000 ) ) ;
#118 = AXIS2_PLACEMENT_3D ( 'NONE', #106, #236, #5 ) ;
#119 = CIRCLE ( 'NONE', #52, 6.349999999999999645 ) ;
#120 = ADVANCED_FACE ( 'NONE', ( #24 ), #12, .T. ) ;
#121 = AXIS2_PLACEMENT_3D ( 'NONE', #55, #208, #57 ) ;
#122 = ADVANCED_FACE ( 'NONE', ( #129, #207 ), #141, .F. ) ;
#123 = ORIENTED_EDGE ( 'NONE', *, *, #98, .F. ) ;
#124 = DIRECTION ( 'NONE',  ( 1.000000000000000000, 0.000000000000000000, 0.000000000000000000 ) ) ;
#125 = EDGE_CURVE ( 'NONE', #56, #189, #237, .T. ) ;
#126 = CALENDAR_DATE ( 2021, 5, 4 ) ;
#127 = CIRCLE ( 'NONE', #10, 6.349999999999999645 ) ;
#128 = ORIENTED_EDGE ( 'NONE', *, *, #145, .F. ) ;
#129 = FACE_OUTER_BOUND ( 'NONE', #16, .T. ) ;
#130 = PERSON_AND_ORGANIZATION_ROLE ( 'design_supplier' ) ;
#131 = DIRECTION ( 'NONE',  ( 0.000000000000000000, 0.000000000000000000, 1.000000000000000000 ) ) ;
#132 = VERTEX_POINT ( 'NONE', #183 ) ;
#133 = MECHANICAL_CONTEXT ( 'NONE', #151, 'mechanical' ) ;
#134 = APPLICATION_PROTOCOL_DEFINITION ( 'international standard', 'config_control_design', 1994, #155 ) ;
#135 = ORIENTED_EDGE ( 'NONE', *, *, #23, .F. ) ;
#136 = APPROVAL_STATUS ( 'not_yet_approved' ) ;
#137 = LINE ( 'NONE', #229, #6 ) ;
#138 = EDGE_LOOP ( 'NONE', ( #220, #135, #76, #167 ) ) ;
#139 = APPROVAL_ROLE ( '' ) ;
#140 = CARTESIAN_POINT ( 'NONE',  ( 0.000000000000000000, 0.000000000000000000, 1.000000000000000000 ) ) ;
#141 = PLANE ( 'NONE',  #178 ) ;
#142 = AXIS2_PLACEMENT_3D ( 'NONE', #198, #230, #247 ) ;
#143 = PERSON_AND_ORGANIZATION ( #93, #204 ) ;
#144 = SECURITY_CLASSIFICATION ( '', '', #177 ) ;
#145 = EDGE_CURVE ( 'NONE', #189, #56, #241, .T. ) ;
#146 = ADVANCED_BREP_SHAPE_REPRESENTATION ( 'Web Model 17212_17213', ( #75, #142 ), #95 ) ;
#147 = LOCAL_TIME ( 13, 56, 56.00000000000000000, #199 ) ;
#148 = VERTEX_POINT ( 'NONE', #2 ) ;
#149 = CC_DESIGN_PERSON_AND_ORGANIZATION_ASSIGNMENT ( #163, #225, ( #11 ) ) ;
#150 = LINE ( 'NONE', #14, #169 ) ;
#151 = APPLICATION_CONTEXT ( 'configuration controlled 3d designs of mechanical parts and assemblies' ) ;
#152 = ORIENTED_EDGE ( 'NONE', *, *, #191, .F. ) ;
#153 = DATE_TIME_ROLE ( 'creation_date' ) ;
#154 = CARTESIAN_POINT ( 'NONE',  ( 0.000000000000000000, 0.000000000000000000, 1.000000000000000000 ) ) ;
#155 = APPLICATION_CONTEXT ( 'configuration controlled 3d designs of mechanical parts and assemblies' ) ;
#156 = APPROVAL_ROLE ( '' ) ;
#157 = PERSON_AND_ORGANIZATION ( #93, #204 ) ;
#158 = CARTESIAN_POINT ( 'NONE',  ( 0.000000000000000000, 0.000000000000000000, 1.000000000000000000 ) ) ;
#159 = VECTOR ( 'NONE', #58, 1000.000000000000000 ) ;
#160 = DIRECTION ( 'NONE',  ( 0.000000000000000000, 0.000000000000000000, 1.000000000000000000 ) ) ;
#161 = APPROVAL ( #17, 'UNSPECIFIED' ) ;
#162 = DIRECTION ( 'NONE',  ( 1.000000000000000000, 0.000000000000000000, 0.000000000000000000 ) ) ;
#163 = PERSON_AND_ORGANIZATION ( #93, #204 ) ;
#164 = DIRECTION ( 'NONE',  ( 1.000000000000000000, 0.000000000000000000, 0.000000000000000000 ) ) ;
#165 = CIRCLE ( 'NONE', #69, 6.349999999999999645 ) ;
#166 = ORIENTED_EDGE ( 'NONE', *, *, #61, .T. ) ;
#167 = ORIENTED_EDGE ( 'NONE', *, *, #125, .T. ) ;
#168 = AXIS2_PLACEMENT_3D ( 'NONE', #77, #15, #173 ) ;
#169 = VECTOR ( 'NONE', #96, 1000.000000000000000 ) ;
#170 = ORIENTED_EDGE ( 'NONE', *, *, #27, .F. ) ;
#171 = CARTESIAN_POINT ( 'NONE',  ( -12.69999999999999929, 0.000000000000000000, 1.000000000000000000 ) ) ;
#172 = CARTESIAN_POINT ( 'NONE',  ( 0.000000000000000000, 0.000000000000000000, 0.000000000000000000 ) ) ;
#173 = DIRECTION ( 'NONE',  ( 1.000000000000000000, 0.000000000000000000, 0.000000000000000000 ) ) ;
#174 = CC_DESIGN_APPROVAL ( #161, ( #42 ) ) ;
#175 = ORIENTED_EDGE ( 'NONE', *, *, #214, .T. ) ;
#176 = CARTESIAN_POINT ( 'NONE',  ( 0.000000000000000000, 0.000000000000000000, 1.000000000000000000 ) ) ;
#177 = SECURITY_CLASSIFICATION_LEVEL ( 'unclassified' ) ;
#178 = AXIS2_PLACEMENT_3D ( 'NONE', #185, #160, #22 ) ;
#179 = DIRECTION ( 'NONE',  ( 0.000000000000000000, 0.000000000000000000, 1.000000000000000000 ) ) ;
#180 = CALENDAR_DATE ( 2021, 5, 4 ) ;
#181 = ADVANCED_FACE ( 'NONE', ( #215, #112 ), #31, .T. ) ;
#182 = CALENDAR_DATE ( 2021, 5, 4 ) ;
#183 = CARTESIAN_POINT ( 'NONE',  ( -6.349999999999999645, 0.000000000000000000, 1.000000000000000000 ) ) ;
#184 = CARTESIAN_POINT ( 'NONE',  ( 6.349999999999999645, 7.776507174585692163E-16, 1.000000000000000000 ) ) ;
#185 = CARTESIAN_POINT ( 'NONE',  ( 0.000000000000000000, 0.000000000000000000, 0.000000000000000000 ) ) ;
#186 = AXIS2_PLACEMENT_3D ( 'NONE', #154, #13, #210 ) ;
#187 = DATE_AND_TIME ( #126, #111 ) ;
#188 = CC_DESIGN_PERSON_AND_ORGANIZATION_ASSIGNMENT ( #108, #82, ( #144 ) ) ;
#189 = VERTEX_POINT ( 'NONE', #97 ) ;
#190 = CC_DESIGN_PERSON_AND_ORGANIZATION_ASSIGNMENT ( #70, #30, ( #42 ) ) ;
#191 = EDGE_CURVE ( 'NONE', #20, #56, #62, .T. ) ;
#192 = COORDINATED_UNIVERSAL_TIME_OFFSET ( 5, 0, .BEHIND. ) ;
#193 = EDGE_LOOP ( 'NONE', ( #28, #94, #1, #152 ) ) ;
#194 = CYLINDRICAL_SURFACE ( 'NONE', #84, 6.349999999999999645 ) ;
#195 = DIRECTION ( 'NONE',  ( 0.000000000000000000, 0.000000000000000000, 1.000000000000000000 ) ) ;
#196 = VERTEX_POINT ( 'NONE', #197 ) ;
#197 = CARTESIAN_POINT ( 'NONE',  ( 12.69999999999999929, 1.555301434917138433E-15, 1.000000000000000000 ) ) ;
#198 = CARTESIAN_POINT ( 'NONE',  ( 0.000000000000000000, 0.000000000000000000, 0.000000000000000000 ) ) ;
#199 = COORDINATED_UNIVERSAL_TIME_OFFSET ( 5, 0, .BEHIND. ) ;
#200 = DATE_AND_TIME ( #243, #18 ) ;
#201 = ORIENTED_EDGE ( 'NONE', *, *, #110, .T. ) ;
#202 = ADVANCED_FACE ( 'NONE', ( #90 ), #219, .T. ) ;
#203 = CC_DESIGN_DATE_AND_TIME_ASSIGNMENT ( #212, #153, ( #42 ) ) ;
#204 = ORGANIZATION ( 'UNSPECIFIED', 'UNSPECIFIED', '' ) ;
#205 = EDGE_CURVE ( 'NONE', #71, #148, #137, .T. ) ;
#206 = PERSON_AND_ORGANIZATION ( #93, #204 ) ;
#207 = FACE_BOUND ( 'NONE', #233, .T. ) ;
#208 = DIRECTION ( 'NONE',  ( 0.000000000000000000, 0.000000000000000000, 1.000000000000000000 ) ) ;
#209 = DIRECTION ( 'NONE',  ( -1.000000000000000000, 0.000000000000000000, 0.000000000000000000 ) ) ;
#210 = DIRECTION ( 'NONE',  ( -1.000000000000000000, 0.000000000000000000, 0.000000000000000000 ) ) ;
#211 = PRODUCT_DEFINITION_FORMATION_WITH_SPECIFIED_SOURCE ( 'ANY', '', #11, .NOT_KNOWN. ) ;
#212 = DATE_AND_TIME ( #180, #147 ) ;
#213 = DATE_TIME_ROLE ( 'classification_date' ) ;
#214 = EDGE_CURVE ( 'NONE', #132, #223, #150, .T. ) ;
#215 = FACE_OUTER_BOUND ( 'NONE', #50, .T. ) ;
#216 = ADVANCED_FACE ( 'NONE', ( #74 ), #54, .F. ) ;
#217 = DIRECTION ( 'NONE',  ( 0.000000000000000000, 0.000000000000000000, 1.000000000000000000 ) ) ;
#218 = APPROVAL_DATE_TIME ( #248, #100 ) ;
#219 = CYLINDRICAL_SURFACE ( 'NONE', #186, 12.69999999999999929 ) ;
#220 = ORIENTED_EDGE ( 'NONE', *, *, #38, .F. ) ;
#221 = EDGE_CURVE ( 'NONE', #196, #20, #32, .T. ) ;
#222 = APPROVAL_PERSON_ORGANIZATION ( #102, #161, #156 ) ;
#223 = VERTEX_POINT ( 'NONE', #115 ) ;
#224 = DIRECTION ( 'NONE',  ( 1.000000000000000000, 0.000000000000000000, 0.000000000000000000 ) ) ;
#225 = PERSON_AND_ORGANIZATION_ROLE ( 'design_owner' ) ;
#226 = CARTESIAN_POINT ( 'NONE',  ( 0.000000000000000000, 0.000000000000000000, 1.000000000000000000 ) ) ;
#227 = COORDINATED_UNIVERSAL_TIME_OFFSET ( 5, 0, .BEHIND. ) ;
#228 = CIRCLE ( 'NONE', #45, 6.349999999999999645 ) ;
#229 = CARTESIAN_POINT ( 'NONE',  ( 6.349999999999999645, 7.776507174585692163E-16, 1.000000000000000000 ) ) ;
#230 = DIRECTION ( 'NONE',  ( 0.000000000000000000, 0.000000000000000000, 1.000000000000000000 ) ) ;
#231 = COORDINATED_UNIVERSAL_TIME_OFFSET ( 5, 0, .BEHIND. ) ;
#232 = ORIENTED_EDGE ( 'NONE', *, *, #221, .T. ) ;
#233 = EDGE_LOOP ( 'NONE', ( #63, #201 ) ) ;
#234 = CARTESIAN_POINT ( 'NONE',  ( 0.000000000000000000, 0.000000000000000000, 1.000000000000000000 ) ) ;
#235 = AXIS2_PLACEMENT_3D ( 'NONE', #176, #117, #209 ) ;
#236 = DIRECTION ( 'NONE',  ( -0.000000000000000000, -0.000000000000000000, -1.000000000000000000 ) ) ;
#237 = CIRCLE ( 'NONE', #73, 12.69999999999999929 ) ;
#238 = ORIENTED_EDGE ( 'NONE', *, *, #125, .F. ) ;
#239 = AXIS2_PLACEMENT_3D ( 'NONE', #158, #179, #83 ) ;
#240 = ORIENTED_EDGE ( 'NONE', *, *, #61, .F. ) ;
#241 = CIRCLE ( 'NONE', #168, 12.69999999999999929 ) ;
#242 =( LENGTH_UNIT ( ) NAMED_UNIT ( * ) SI_UNIT ( .MILLI., .METRE. ) );
#243 = CALENDAR_DATE ( 2021, 5, 4 ) ;
#244 = PERSON_AND_ORGANIZATION_ROLE ( 'creator' ) ;
#245 = ORIENTED_EDGE ( 'NONE', *, *, #98, .T. ) ;
#246 =( NAMED_UNIT ( * ) SI_UNIT ( $, .STERADIAN. ) SOLID_ANGLE_UNIT ( ) );
#247 = DIRECTION ( 'NONE',  ( 1.000000000000000000, 0.000000000000000000, 0.000000000000000000 ) ) ;
#248 = DATE_AND_TIME ( #182, #4 ) ;
#249 = SHAPE_DEFINITION_REPRESENTATION ( #39, #146 ) ;
ENDSEC;
END-ISO-10303-21;
