ISO-10303-21;
HEADER;
FILE_DESCRIPTION (( 'STEP AP203' ),
    '1' );
FILE_NAME ('Web Model 39236_39266.step',
    '2018-07-25T17:12:37',
    ( '' ),
    ( '' ),
    'SwSTEP 2.0',
    'SolidWorks 2016',
    '' );
FILE_SCHEMA (( 'CONFIG_CONTROL_DESIGN' ));
ENDSEC;

DATA;
#1 = ORIENTED_EDGE ( 'NONE', *, *, #39, .F. ) ;
#2 = CC_DESIGN_DATE_AND_TIME_ASSIGNMENT ( #120, #153, ( #148 ) ) ;
#3 = MANIFOLD_SOLID_BREP ( 'Boss-Extrude1', #32 ) ;
#4 = SECURITY_CLASSIFICATION ( '', '', #114 ) ;
#5 = ORIENTED_EDGE ( 'NONE', *, *, #150, .F. ) ;
#6 = DIRECTION ( 'NONE',  ( 0.0000000000000000000, 0.0000000000000000000, 1.000000000000000000 ) ) ;
#7 = CC_DESIGN_PERSON_AND_ORGANIZATION_ASSIGNMENT ( #117, #168, ( #55 ) ) ;
#8 = APPROVAL_ROLE ( '' ) ;
#9 = DATE_AND_TIME ( #42, #151 ) ;
#10 =( LENGTH_UNIT ( ) NAMED_UNIT ( * ) SI_UNIT ( .MILLI., .METRE. ) );
#11 = DIRECTION ( 'NONE',  ( 0.0000000000000000000, 0.0000000000000000000, 1.000000000000000000 ) ) ;
#12 = APPROVAL_ROLE ( '' ) ;
#13 = LOCAL_TIME ( 13, 12, 37.00000000000000000, #47 ) ;
#14 = AXIS2_PLACEMENT_3D ( 'NONE', #20, #37, #124 ) ;
#15 = APPROVAL_DATE_TIME ( #134, #35 ) ;
#16 = CC_DESIGN_PERSON_AND_ORGANIZATION_ASSIGNMENT ( #175, #78, ( #148 ) ) ;
#17 = ADVANCED_FACE ( 'NONE', ( #165 ), #104, .T. ) ;
#18 = APPROVAL_PERSON_ORGANIZATION ( #149, #94, #12 ) ;
#19 = CARTESIAN_POINT ( 'NONE',  ( 0.0000000000000000000, 0.0000000000000000000, 0.5000000000000000000 ) ) ;
#20 = CARTESIAN_POINT ( 'NONE',  ( 0.0000000000000000000, 0.0000000000000000000, 0.5000000000000000000 ) ) ;
#21 = FACE_OUTER_BOUND ( 'NONE', #146, .T. ) ;
#22 = CARTESIAN_POINT ( 'NONE',  ( 15.87500000000000000, 1.944126793646423200E-015, 0.5000000000000000000 ) ) ;
#23 = APPLICATION_PROTOCOL_DEFINITION ( 'international standard', 'config_control_design', 1994, #155 ) ;
#24 = APPROVAL_STATUS ( 'not_yet_approved' ) ;
#25 = ORGANIZATION ( 'UNSPECIFIED', 'UNSPECIFIED', '' ) ;
#26 = DIRECTION ( 'NONE',  ( -0.0000000000000000000, -0.0000000000000000000, -1.000000000000000000 ) ) ;
#27 = VECTOR ( 'NONE', #167, 1000.000000000000000 ) ;
#28 = ORIENTED_EDGE ( 'NONE', *, *, #41, .F. ) ;
#29 = ORIENTED_EDGE ( 'NONE', *, *, #150, .T. ) ;
#30 = ADVANCED_FACE ( 'NONE', ( #71 ), #166, .T. ) ;
#31 = CC_DESIGN_PERSON_AND_ORGANIZATION_ASSIGNMENT ( #50, #90, ( #55 ) ) ;
#32 = CLOSED_SHELL ( 'NONE', ( #17, #44, #30, #122 ) ) ;
#33 = DIRECTION ( 'NONE',  ( -0.0000000000000000000, -0.0000000000000000000, -1.000000000000000000 ) ) ;
#34 = PERSON_AND_ORGANIZATION_ROLE ( 'design_owner' ) ;
#35 = APPROVAL ( #93, 'UNSPECIFIED' ) ;
#36 = DATE_AND_TIME ( #143, #116 ) ;
#37 = DIRECTION ( 'NONE',  ( 0.0000000000000000000, 0.0000000000000000000, 1.000000000000000000 ) ) ;
#38 = DESIGN_CONTEXT ( 'detailed design', #145, 'design' ) ;
#39 = EDGE_CURVE ( 'NONE', #133, #66, #169, .T. ) ;
#40 = ORIENTED_EDGE ( 'NONE', *, *, #41, .T. ) ;
#41 = EDGE_CURVE ( 'NONE', #73, #100, #132, .T. ) ;
#42 = CALENDAR_DATE ( 2018, 25, 7 ) ;
#43 = DIRECTION ( 'NONE',  ( 0.0000000000000000000, 0.0000000000000000000, 1.000000000000000000 ) ) ;
#44 = ADVANCED_FACE ( 'NONE', ( #88 ), #147, .T. ) ;
#45 = CC_DESIGN_PERSON_AND_ORGANIZATION_ASSIGNMENT ( #118, #34, ( #72 ) ) ;
#46 = CARTESIAN_POINT ( 'NONE',  ( 0.0000000000000000000, 0.0000000000000000000, 0.5000000000000000000 ) ) ;
#47 = COORDINATED_UNIVERSAL_TIME_OFFSET ( 5, 0, .BEHIND. ) ;
#48 = UNCERTAINTY_MEASURE_WITH_UNIT (LENGTH_MEASURE( 1.000000000000000100E-005 ), #10, 'distance_accuracy_value', 'NONE');
#49 = CC_DESIGN_SECURITY_CLASSIFICATION ( #4, ( #55 ) ) ;
#50 = PERSON_AND_ORGANIZATION ( #84, #25 ) ;
#51 = DIRECTION ( 'NONE',  ( 1.000000000000000000, 0.0000000000000000000, 0.0000000000000000000 ) ) ;
#52 = APPROVAL_ROLE ( '' ) ;
#53 = DATE_AND_TIME ( #119, #13 ) ;
#54 = ADVANCED_BREP_SHAPE_REPRESENTATION ( 'Web Model 39236_39266', ( #3, #85 ), #161 ) ;
#55 = PRODUCT_DEFINITION_FORMATION_WITH_SPECIFIED_SOURCE ( 'ANY', '', #72, .NOT_KNOWN. ) ;
#56 = CC_DESIGN_PERSON_AND_ORGANIZATION_ASSIGNMENT ( #121, #170, ( #4 ) ) ;
#57 = APPROVAL ( #24, 'UNSPECIFIED' ) ;
#58 = CIRCLE ( 'NONE', #14, 15.87500000000000000 ) ;
#59 = ORIENTED_EDGE ( 'NONE', *, *, #110, .T. ) ;
#60 = CALENDAR_DATE ( 2018, 25, 7 ) ;
#61 = AXIS2_PLACEMENT_3D ( 'NONE', #106, #69, #154 ) ;
#62 = DIRECTION ( 'NONE',  ( 1.000000000000000000, 0.0000000000000000000, -0.0000000000000000000 ) ) ;
#63 = APPLICATION_PROTOCOL_DEFINITION ( 'international standard', 'config_control_design', 1994, #145 ) ;
#64 = DIRECTION ( 'NONE',  ( 1.000000000000000000, 0.0000000000000000000, 0.0000000000000000000 ) ) ;
#65 = ORIENTED_EDGE ( 'NONE', *, *, #135, .T. ) ;
#66 = VERTEX_POINT ( 'NONE', #68 ) ;
#67 = CC_DESIGN_APPROVAL ( #57, ( #55 ) ) ;
#68 = CARTESIAN_POINT ( 'NONE',  ( -15.87500000000000000, 0.0000000000000000000, -0.5000000000000000000 ) ) ;
#69 = DIRECTION ( 'NONE',  ( 0.0000000000000000000, 0.0000000000000000000, 1.000000000000000000 ) ) ;
#70 = AXIS2_PLACEMENT_3D ( 'NONE', #79, #105, #51 ) ;
#71 = FACE_OUTER_BOUND ( 'NONE', #95, .T. ) ;
#72 = PRODUCT ( 'Web Model 39236_39266', 'Web Model 39236_39266', '', ( #139 ) ) ;
#73 = VERTEX_POINT ( 'NONE', #22 ) ;
#74 = EDGE_LOOP ( 'NONE', ( #28, #108, #98, #29 ) ) ;
#75 = AXIS2_PLACEMENT_3D ( 'NONE', #19, #111, #123 ) ;
#76 = CC_DESIGN_DATE_AND_TIME_ASSIGNMENT ( #9, #113, ( #4 ) ) ;
#77 = CARTESIAN_POINT ( 'NONE',  ( 0.0000000000000000000, 0.0000000000000000000, 0.0000000000000000000 ) ) ;
#78 = PERSON_AND_ORGANIZATION_ROLE ( 'creator' ) ;
#79 = CARTESIAN_POINT ( 'NONE',  ( 0.0000000000000000000, 0.0000000000000000000, -0.5000000000000000000 ) ) ;
#80 = PLANE ( 'NONE',  #83 ) ;
#81 = APPROVAL_DATE_TIME ( #53, #57 ) ;
#82 = COORDINATED_UNIVERSAL_TIME_OFFSET ( 5, 0, .BEHIND. ) ;
#83 = AXIS2_PLACEMENT_3D ( 'NONE', #172, #6, #171 ) ;
#84 = PERSON ( 'UNSPECIFIED', 'UNSPECIFIED', 'UNSPECIFIED', ('UNSPECIFIED'), ('UNSPECIFIED'), ('UNSPECIFIED') ) ;
#85 = AXIS2_PLACEMENT_3D ( 'NONE', #77, #92, #142 ) ;
#86 = CIRCLE ( 'NONE', #61, 15.87500000000000000 ) ;
#87 = APPROVAL_PERSON_ORGANIZATION ( #89, #57, #8 ) ;
#88 = FACE_OUTER_BOUND ( 'NONE', #74, .T. ) ;
#89 = PERSON_AND_ORGANIZATION ( #84, #25 ) ;
#90 = PERSON_AND_ORGANIZATION_ROLE ( 'design_supplier' ) ;
#91 = CIRCLE ( 'NONE', #70, 15.87500000000000000 ) ;
#92 = DIRECTION ( 'NONE',  ( 0.0000000000000000000, 0.0000000000000000000, 1.000000000000000000 ) ) ;
#93 = APPROVAL_STATUS ( 'not_yet_approved' ) ;
#94 = APPROVAL ( #144, 'UNSPECIFIED' ) ;
#95 = EDGE_LOOP ( 'NONE', ( #136, #59 ) ) ;
#96 = CIRCLE ( 'NONE', #160, 15.87500000000000000 ) ;
#97 = EDGE_CURVE ( 'NONE', #133, #73, #86, .T. ) ;
#98 = ORIENTED_EDGE ( 'NONE', *, *, #39, .T. ) ;
#99 = LOCAL_TIME ( 13, 12, 37.00000000000000000, #128 ) ;
#100 = VERTEX_POINT ( 'NONE', #156 ) ;
#101 = APPROVAL_PERSON_ORGANIZATION ( #173, #35, #52 ) ;
#102 = CC_DESIGN_APPROVAL ( #94, ( #4 ) ) ;
#103 = CARTESIAN_POINT ( 'NONE',  ( 0.0000000000000000000, 0.0000000000000000000, -0.5000000000000000000 ) ) ;
#104 = CYLINDRICAL_SURFACE ( 'NONE', #75, 15.87500000000000000 ) ;
#105 = DIRECTION ( 'NONE',  ( 0.0000000000000000000, 0.0000000000000000000, 1.000000000000000000 ) ) ;
#106 = CARTESIAN_POINT ( 'NONE',  ( 0.0000000000000000000, 0.0000000000000000000, 0.5000000000000000000 ) ) ;
#107 = ORIENTED_EDGE ( 'NONE', *, *, #135, .F. ) ;
#108 = ORIENTED_EDGE ( 'NONE', *, *, #97, .F. ) ;
#109 = PRODUCT_RELATED_PRODUCT_CATEGORY ( 'detail', '', ( #72 ) ) ;
#110 = EDGE_CURVE ( 'NONE', #73, #133, #58, .T. ) ;
#111 = DIRECTION ( 'NONE',  ( -0.0000000000000000000, -0.0000000000000000000, -1.000000000000000000 ) ) ;
#112 =( NAMED_UNIT ( * ) PLANE_ANGLE_UNIT ( ) SI_UNIT ( $, .RADIAN. ) );
#113 = DATE_TIME_ROLE ( 'classification_date' ) ;
#114 = SECURITY_CLASSIFICATION_LEVEL ( 'unclassified' ) ;
#115 = SHAPE_DEFINITION_REPRESENTATION ( #162, #54 ) ;
#116 = LOCAL_TIME ( 13, 12, 37.00000000000000000, #163 ) ;
#117 = PERSON_AND_ORGANIZATION ( #84, #25 ) ;
#118 = PERSON_AND_ORGANIZATION ( #84, #25 ) ;
#119 = CALENDAR_DATE ( 2018, 25, 7 ) ;
#120 = DATE_AND_TIME ( #157, #129 ) ;
#121 = PERSON_AND_ORGANIZATION ( #84, #25 ) ;
#122 = ADVANCED_FACE ( 'NONE', ( #21 ), #80, .F. ) ;
#123 = DIRECTION ( 'NONE',  ( -1.000000000000000000, 0.0000000000000000000, 0.0000000000000000000 ) ) ;
#124 = DIRECTION ( 'NONE',  ( 1.000000000000000000, 0.0000000000000000000, 0.0000000000000000000 ) ) ;
#125 =( NAMED_UNIT ( * ) SI_UNIT ( $, .STERADIAN. ) SOLID_ANGLE_UNIT ( ) );
#126 = EDGE_LOOP ( 'NONE', ( #158, #40, #65, #1 ) ) ;
#127 = DIRECTION ( 'NONE',  ( -1.000000000000000000, 0.0000000000000000000, 0.0000000000000000000 ) ) ;
#128 = COORDINATED_UNIVERSAL_TIME_OFFSET ( 5, 0, .BEHIND. ) ;
#129 = LOCAL_TIME ( 13, 12, 37.00000000000000000, #164 ) ;
#130 = APPROVAL_DATE_TIME ( #36, #94 ) ;
#131 = AXIS2_PLACEMENT_3D ( 'NONE', #138, #43, #62 ) ;
#132 = LINE ( 'NONE', #152, #27 ) ;
#133 = VERTEX_POINT ( 'NONE', #141 ) ;
#134 = DATE_AND_TIME ( #60, #99 ) ;
#135 = EDGE_CURVE ( 'NONE', #100, #66, #96, .T. ) ;
#136 = ORIENTED_EDGE ( 'NONE', *, *, #97, .T. ) ;
#137 = AXIS2_PLACEMENT_3D ( 'NONE', #46, #33, #127 ) ;
#138 = CARTESIAN_POINT ( 'NONE',  ( 0.0000000000000000000, 0.0000000000000000000, 0.5000000000000000000 ) ) ;
#139 = MECHANICAL_CONTEXT ( 'NONE', #155, 'mechanical' ) ;
#140 = VECTOR ( 'NONE', #26, 1000.000000000000000 ) ;
#141 = CARTESIAN_POINT ( 'NONE',  ( -15.87500000000000000, 0.0000000000000000000, 0.5000000000000000000 ) ) ;
#142 = DIRECTION ( 'NONE',  ( 1.000000000000000000, 0.0000000000000000000, 0.0000000000000000000 ) ) ;
#143 = CALENDAR_DATE ( 2018, 25, 7 ) ;
#144 = APPROVAL_STATUS ( 'not_yet_approved' ) ;
#145 = APPLICATION_CONTEXT ( 'configuration controlled 3d designs of mechanical parts and assemblies' ) ;
#146 = EDGE_LOOP ( 'NONE', ( #5, #107 ) ) ;
#147 = CYLINDRICAL_SURFACE ( 'NONE', #137, 15.87500000000000000 ) ;
#148 = PRODUCT_DEFINITION ( 'UNKNOWN', '', #55, #38 ) ;
#149 = PERSON_AND_ORGANIZATION ( #84, #25 ) ;
#150 = EDGE_CURVE ( 'NONE', #66, #100, #91, .T. ) ;
#151 = LOCAL_TIME ( 13, 12, 37.00000000000000000, #82 ) ;
#152 = CARTESIAN_POINT ( 'NONE',  ( 15.87500000000000000, 1.944126793646423200E-015, 0.5000000000000000000 ) ) ;
#153 = DATE_TIME_ROLE ( 'creation_date' ) ;
#154 = DIRECTION ( 'NONE',  ( 1.000000000000000000, 0.0000000000000000000, 0.0000000000000000000 ) ) ;
#155 = APPLICATION_CONTEXT ( 'configuration controlled 3d designs of mechanical parts and assemblies' ) ;
#156 = CARTESIAN_POINT ( 'NONE',  ( 15.87500000000000000, 1.944126793646423200E-015, -0.5000000000000000000 ) ) ;
#157 = CALENDAR_DATE ( 2018, 25, 7 ) ;
#158 = ORIENTED_EDGE ( 'NONE', *, *, #110, .F. ) ;
#159 = CC_DESIGN_APPROVAL ( #35, ( #148 ) ) ;
#160 = AXIS2_PLACEMENT_3D ( 'NONE', #103, #11, #64 ) ;
#161 =( GEOMETRIC_REPRESENTATION_CONTEXT ( 3 ) GLOBAL_UNCERTAINTY_ASSIGNED_CONTEXT ( ( #48 ) ) GLOBAL_UNIT_ASSIGNED_CONTEXT ( ( #10, #112, #125 ) ) REPRESENTATION_CONTEXT ( 'NONE', 'WORKASPACE' ) );
#162 = PRODUCT_DEFINITION_SHAPE ( 'NONE', 'NONE',  #148 ) ;
#163 = COORDINATED_UNIVERSAL_TIME_OFFSET ( 5, 0, .BEHIND. ) ;
#164 = COORDINATED_UNIVERSAL_TIME_OFFSET ( 5, 0, .BEHIND. ) ;
#165 = FACE_OUTER_BOUND ( 'NONE', #126, .T. ) ;
#166 = PLANE ( 'NONE',  #131 ) ;
#167 = DIRECTION ( 'NONE',  ( -0.0000000000000000000, -0.0000000000000000000, -1.000000000000000000 ) ) ;
#168 = PERSON_AND_ORGANIZATION_ROLE ( 'creator' ) ;
#169 = LINE ( 'NONE', #174, #140 ) ;
#170 = PERSON_AND_ORGANIZATION_ROLE ( 'classification_officer' ) ;
#171 = DIRECTION ( 'NONE',  ( 1.000000000000000000, 0.0000000000000000000, -0.0000000000000000000 ) ) ;
#172 = CARTESIAN_POINT ( 'NONE',  ( 0.0000000000000000000, 0.0000000000000000000, -0.5000000000000000000 ) ) ;
#173 = PERSON_AND_ORGANIZATION ( #84, #25 ) ;
#174 = CARTESIAN_POINT ( 'NONE',  ( -15.87500000000000000, 0.0000000000000000000, 0.5000000000000000000 ) ) ;
#175 = PERSON_AND_ORGANIZATION ( #84, #25 ) ;
ENDSEC;
END-ISO-10303-21;
