ISO-10303-21;
HEADER;
FILE_DESCRIPTION (( 'STEP AP203' ),
    '1' );
FILE_NAME ('Web Model 15426_15790.step',
    '2020-11-03T22:09:19',
    ( '' ),
    ( '' ),
    'SwSTEP 2.0',
    'SolidWorks 2018',
    '' );
FILE_SCHEMA (( 'CONFIG_CONTROL_DESIGN' ));
ENDSEC;

DATA;
#1 = CC_DESIGN_PERSON_AND_ORGANIZATION_ASSIGNMENT ( #113, #36, ( #107 ) ) ;
#2 = DATE_AND_TIME ( #24, #59 ) ;
#3 = ORIENTED_EDGE ( 'NONE', *, *, #32, .F. ) ;
#4 = DIRECTION ( 'NONE',  ( 1.000000000000000000, 0.0000000000000000000, 0.0000000000000000000 ) ) ;
#5 = DIRECTION ( 'NONE',  ( 1.000000000000000000, 0.0000000000000000000, 0.0000000000000000000 ) ) ;
#6 = DIRECTION ( 'NONE',  ( -0.0000000000000000000, -0.0000000000000000000, -1.000000000000000000 ) ) ;
#7 = EDGE_CURVE ( 'NONE', #121, #25, #143, .T. ) ;
#8 = ORIENTED_EDGE ( 'NONE', *, *, #152, .T. ) ;
#9 = ORIENTED_EDGE ( 'NONE', *, *, #7, .T. ) ;
#10 = APPLICATION_PROTOCOL_DEFINITION ( 'international standard', 'config_control_design', 1994, #90 ) ;
#11 = PERSON_AND_ORGANIZATION ( #27, #99 ) ;
#12 = CLOSED_SHELL ( 'NONE', ( #64, #49, #73, #151 ) ) ;
#13 = VECTOR ( 'NONE', #114, 1000.000000000000000 ) ;
#14 = LINE ( 'NONE', #162, #133 ) ;
#15 = APPROVAL_DATE_TIME ( #124, #53 ) ;
#16 = ORIENTED_EDGE ( 'NONE', *, *, #152, .F. ) ;
#17 = EDGE_LOOP ( 'NONE', ( #3, #28 ) ) ;
#18 = LOCAL_TIME ( 17, 9, 19.00000000000000000, #81 ) ;
#19 = CYLINDRICAL_SURFACE ( 'NONE', #43, 25.39999999999999858 ) ;
#20 = DIRECTION ( 'NONE',  ( 0.0000000000000000000, 0.0000000000000000000, 1.000000000000000000 ) ) ;
#21 = CARTESIAN_POINT ( 'NONE',  ( 0.0000000000000000000, 0.0000000000000000000, 2.000000000000000000 ) ) ;
#22 =( NAMED_UNIT ( * ) PLANE_ANGLE_UNIT ( ) SI_UNIT ( $, .RADIAN. ) );
#23 = AXIS2_PLACEMENT_3D ( 'NONE', #57, #35, #5 ) ;
#24 = CALENDAR_DATE ( 2020, 3, 11 ) ;
#25 = VERTEX_POINT ( 'NONE', #102 ) ;
#26 = PRODUCT_RELATED_PRODUCT_CATEGORY ( 'detail', '', ( #174 ) ) ;
#27 = PERSON ( 'UNSPECIFIED', 'UNSPECIFIED', 'UNSPECIFIED', ('UNSPECIFIED'), ('UNSPECIFIED'), ('UNSPECIFIED') ) ;
#28 = ORIENTED_EDGE ( 'NONE', *, *, #130, .F. ) ;
#29 = VERTEX_POINT ( 'NONE', #74 ) ;
#30 = CALENDAR_DATE ( 2020, 3, 11 ) ;
#31 = CYLINDRICAL_SURFACE ( 'NONE', #140, 25.39999999999999858 ) ;
#32 = EDGE_CURVE ( 'NONE', #95, #29, #146, .T. ) ;
#33 = ORIENTED_EDGE ( 'NONE', *, *, #7, .F. ) ;
#34 = DATE_AND_TIME ( #30, #54 ) ;
#35 = DIRECTION ( 'NONE',  ( 0.0000000000000000000, 0.0000000000000000000, 1.000000000000000000 ) ) ;
#36 = PERSON_AND_ORGANIZATION_ROLE ( 'creator' ) ;
#37 = PERSON_AND_ORGANIZATION ( #27, #99 ) ;
#38 = PERSON_AND_ORGANIZATION_ROLE ( 'design_supplier' ) ;
#39 = APPROVAL_STATUS ( 'not_yet_approved' ) ;
#40 = COORDINATED_UNIVERSAL_TIME_OFFSET ( 5, 0, .BEHIND. ) ;
#41 = APPLICATION_PROTOCOL_DEFINITION ( 'international standard', 'config_control_design', 1994, #167 ) ;
#42 = AXIS2_PLACEMENT_3D ( 'NONE', #58, #104, #61 ) ;
#43 = AXIS2_PLACEMENT_3D ( 'NONE', #70, #149, #115 ) ;
#44 = COORDINATED_UNIVERSAL_TIME_OFFSET ( 5, 0, .BEHIND. ) ;
#45 = EDGE_LOOP ( 'NONE', ( #137, #8, #141, #77 ) ) ;
#46 = PRODUCT_DEFINITION_SHAPE ( 'NONE', 'NONE',  #107 ) ;
#47 = LOCAL_TIME ( 17, 9, 19.00000000000000000, #132 ) ;
#48 = DIRECTION ( 'NONE',  ( 0.0000000000000000000, 0.0000000000000000000, 1.000000000000000000 ) ) ;
#49 = ADVANCED_FACE ( 'NONE', ( #119 ), #19, .T. ) ;
#50 = CARTESIAN_POINT ( 'NONE',  ( -25.39999999999999858, 0.0000000000000000000, 2.000000000000000000 ) ) ;
#51 = DIRECTION ( 'NONE',  ( 0.0000000000000000000, 0.0000000000000000000, 1.000000000000000000 ) ) ;
#52 = APPROVAL_DATE_TIME ( #164, #78 ) ;
#53 = APPROVAL ( #92, 'UNSPECIFIED' ) ;
#54 = LOCAL_TIME ( 17, 9, 19.00000000000000000, #142 ) ;
#55 = EDGE_LOOP ( 'NONE', ( #16, #33, #144, #158 ) ) ;
#56 = CC_DESIGN_APPROVAL ( #96, ( #107 ) ) ;
#57 = CARTESIAN_POINT ( 'NONE',  ( 0.0000000000000000000, 0.0000000000000000000, 2.000000000000000000 ) ) ;
#58 = CARTESIAN_POINT ( 'NONE',  ( 0.0000000000000000000, 0.0000000000000000000, -2.000000000000000000 ) ) ;
#59 = LOCAL_TIME ( 17, 9, 19.00000000000000000, #40 ) ;
#60 = PLANE ( 'NONE',  #150 ) ;
#61 = DIRECTION ( 'NONE',  ( 1.000000000000000000, 0.0000000000000000000, 0.0000000000000000000 ) ) ;
#62 = DATE_TIME_ROLE ( 'creation_date' ) ;
#63 = PERSON_AND_ORGANIZATION_ROLE ( 'classification_officer' ) ;
#64 = ADVANCED_FACE ( 'NONE', ( #139 ), #31, .T. ) ;
#65 = APPROVAL_PERSON_ORGANIZATION ( #82, #96, #120 ) ;
#66 = PRODUCT_DEFINITION_FORMATION_WITH_SPECIFIED_SOURCE ( 'ANY', '', #174, .NOT_KNOWN. ) ;
#67 = CC_DESIGN_DATE_AND_TIME_ASSIGNMENT ( #34, #62, ( #107 ) ) ;
#68 = SHAPE_DEFINITION_REPRESENTATION ( #46, #160 ) ;
#69 = CARTESIAN_POINT ( 'NONE',  ( 0.0000000000000000000, 0.0000000000000000000, -2.000000000000000000 ) ) ;
#70 = CARTESIAN_POINT ( 'NONE',  ( 0.0000000000000000000, 0.0000000000000000000, 2.000000000000000000 ) ) ;
#71 = CALENDAR_DATE ( 2020, 3, 11 ) ;
#72 = CC_DESIGN_DATE_AND_TIME_ASSIGNMENT ( #147, #138, ( #122 ) ) ;
#73 = ADVANCED_FACE ( 'NONE', ( #172 ), #60, .T. ) ;
#74 = CARTESIAN_POINT ( 'NONE',  ( 25.39999999999999858, 3.110602869834276865E-15, -2.000000000000000000 ) ) ;
#75 = PERSON_AND_ORGANIZATION ( #27, #99 ) ;
#76 = DIRECTION ( 'NONE',  ( -1.000000000000000000, 0.0000000000000000000, 0.0000000000000000000 ) ) ;
#77 = ORIENTED_EDGE ( 'NONE', *, *, #109, .F. ) ;
#78 = APPROVAL ( #118, 'UNSPECIFIED' ) ;
#79 = CC_DESIGN_PERSON_AND_ORGANIZATION_ASSIGNMENT ( #153, #63, ( #122 ) ) ;
#80 =( LENGTH_UNIT ( ) NAMED_UNIT ( * ) SI_UNIT ( .MILLI., .METRE. ) );
#81 = COORDINATED_UNIVERSAL_TIME_OFFSET ( 5, 0, .BEHIND. ) ;
#82 = PERSON_AND_ORGANIZATION ( #27, #99 ) ;
#83 = LOCAL_TIME ( 17, 9, 19.00000000000000000, #44 ) ;
#84 = AXIS2_PLACEMENT_3D ( 'NONE', #112, #48, #106 ) ;
#85 = EDGE_LOOP ( 'NONE', ( #9, #156 ) ) ;
#86 =( GEOMETRIC_REPRESENTATION_CONTEXT ( 3 ) GLOBAL_UNCERTAINTY_ASSIGNED_CONTEXT ( ( #157 ) ) GLOBAL_UNIT_ASSIGNED_CONTEXT ( ( #80, #22, #169 ) ) REPRESENTATION_CONTEXT ( 'NONE', 'WORKASPACE' ) );
#87 = CALENDAR_DATE ( 2020, 3, 11 ) ;
#88 = DIRECTION ( 'NONE',  ( -0.0000000000000000000, -0.0000000000000000000, -1.000000000000000000 ) ) ;
#89 = CARTESIAN_POINT ( 'NONE',  ( 0.0000000000000000000, 0.0000000000000000000, -2.000000000000000000 ) ) ;
#90 = APPLICATION_CONTEXT ( 'configuration controlled 3d designs of mechanical parts and assemblies' ) ;
#91 = MECHANICAL_CONTEXT ( 'NONE', #167, 'mechanical' ) ;
#92 = APPROVAL_STATUS ( 'not_yet_approved' ) ;
#93 = PERSON_AND_ORGANIZATION_ROLE ( 'design_owner' ) ;
#94 = CC_DESIGN_APPROVAL ( #53, ( #122 ) ) ;
#95 = VERTEX_POINT ( 'NONE', #100 ) ;
#96 = APPROVAL ( #39, 'UNSPECIFIED' ) ;
#97 = AXIS2_PLACEMENT_3D ( 'NONE', #89, #117, #4 ) ;
#98 = APPROVAL_DATE_TIME ( #2, #96 ) ;
#99 = ORGANIZATION ( 'UNSPECIFIED', 'UNSPECIFIED', '' ) ;
#100 = CARTESIAN_POINT ( 'NONE',  ( -25.39999999999999858, 0.0000000000000000000, -2.000000000000000000 ) ) ;
#101 = DIRECTION ( 'NONE',  ( 1.000000000000000000, 0.0000000000000000000, -0.0000000000000000000 ) ) ;
#102 = CARTESIAN_POINT ( 'NONE',  ( 25.39999999999999858, 3.110602869834276865E-15, 2.000000000000000000 ) ) ;
#103 = CC_DESIGN_SECURITY_CLASSIFICATION ( #122, ( #66 ) ) ;
#104 = DIRECTION ( 'NONE',  ( 0.0000000000000000000, 0.0000000000000000000, 1.000000000000000000 ) ) ;
#105 = CC_DESIGN_PERSON_AND_ORGANIZATION_ASSIGNMENT ( #125, #128, ( #66 ) ) ;
#106 = DIRECTION ( 'NONE',  ( 1.000000000000000000, 0.0000000000000000000, 0.0000000000000000000 ) ) ;
#107 = PRODUCT_DEFINITION ( 'UNKNOWN', '', #66, #148 ) ;
#108 = CC_DESIGN_PERSON_AND_ORGANIZATION_ASSIGNMENT ( #75, #93, ( #174 ) ) ;
#109 = EDGE_CURVE ( 'NONE', #121, #95, #14, .T. ) ;
#110 = CC_DESIGN_PERSON_AND_ORGANIZATION_ASSIGNMENT ( #37, #38, ( #66 ) ) ;
#111 = CC_DESIGN_APPROVAL ( #78, ( #66 ) ) ;
#112 = CARTESIAN_POINT ( 'NONE',  ( 0.0000000000000000000, 0.0000000000000000000, 0.0000000000000000000 ) ) ;
#113 = PERSON_AND_ORGANIZATION ( #27, #99 ) ;
#114 = DIRECTION ( 'NONE',  ( -0.0000000000000000000, -0.0000000000000000000, -1.000000000000000000 ) ) ;
#115 = DIRECTION ( 'NONE',  ( -1.000000000000000000, 0.0000000000000000000, 0.0000000000000000000 ) ) ;
#116 = MANIFOLD_SOLID_BREP ( 'Boss-Extrude1', #12 ) ;
#117 = DIRECTION ( 'NONE',  ( 0.0000000000000000000, 0.0000000000000000000, 1.000000000000000000 ) ) ;
#118 = APPROVAL_STATUS ( 'not_yet_approved' ) ;
#119 = FACE_OUTER_BOUND ( 'NONE', #55, .T. ) ;
#120 = APPROVAL_ROLE ( '' ) ;
#121 = VERTEX_POINT ( 'NONE', #50 ) ;
#122 = SECURITY_CLASSIFICATION ( '', '', #129 ) ;
#123 = AXIS2_PLACEMENT_3D ( 'NONE', #69, #20, #101 ) ;
#124 = DATE_AND_TIME ( #87, #83 ) ;
#125 = PERSON_AND_ORGANIZATION ( #27, #99 ) ;
#126 = CARTESIAN_POINT ( 'NONE',  ( 25.39999999999999858, 3.110602869834276865E-15, 2.000000000000000000 ) ) ;
#127 = CARTESIAN_POINT ( 'NONE',  ( 0.0000000000000000000, 0.0000000000000000000, 2.000000000000000000 ) ) ;
#128 = PERSON_AND_ORGANIZATION_ROLE ( 'creator' ) ;
#129 = SECURITY_CLASSIFICATION_LEVEL ( 'unclassified' ) ;
#130 = EDGE_CURVE ( 'NONE', #29, #95, #134, .T. ) ;
#131 = APPROVAL_ROLE ( '' ) ;
#132 = COORDINATED_UNIVERSAL_TIME_OFFSET ( 5, 0, .BEHIND. ) ;
#133 = VECTOR ( 'NONE', #6, 1000.000000000000000 ) ;
#134 = CIRCLE ( 'NONE', #42, 25.39999999999999858 ) ;
#135 = APPROVAL_PERSON_ORGANIZATION ( #175, #78, #131 ) ;
#136 = APPROVAL_ROLE ( '' ) ;
#137 = ORIENTED_EDGE ( 'NONE', *, *, #161, .F. ) ;
#138 = DATE_TIME_ROLE ( 'classification_date' ) ;
#139 = FACE_OUTER_BOUND ( 'NONE', #45, .T. ) ;
#140 = AXIS2_PLACEMENT_3D ( 'NONE', #127, #88, #76 ) ;
#141 = ORIENTED_EDGE ( 'NONE', *, *, #130, .T. ) ;
#142 = COORDINATED_UNIVERSAL_TIME_OFFSET ( 5, 0, .BEHIND. ) ;
#143 = CIRCLE ( 'NONE', #23, 25.39999999999999858 ) ;
#144 = ORIENTED_EDGE ( 'NONE', *, *, #109, .T. ) ;
#145 = CIRCLE ( 'NONE', #170, 25.39999999999999858 ) ;
#146 = CIRCLE ( 'NONE', #97, 25.39999999999999858 ) ;
#147 = DATE_AND_TIME ( #71, #47 ) ;
#148 = DESIGN_CONTEXT ( 'detailed design', #90, 'design' ) ;
#149 = DIRECTION ( 'NONE',  ( -0.0000000000000000000, -0.0000000000000000000, -1.000000000000000000 ) ) ;
#150 = AXIS2_PLACEMENT_3D ( 'NONE', #21, #163, #165 ) ;
#151 = ADVANCED_FACE ( 'NONE', ( #173 ), #166, .F. ) ;
#152 = EDGE_CURVE ( 'NONE', #25, #29, #155, .T. ) ;
#153 = PERSON_AND_ORGANIZATION ( #27, #99 ) ;
#154 = DIRECTION ( 'NONE',  ( 1.000000000000000000, 0.0000000000000000000, 0.0000000000000000000 ) ) ;
#155 = LINE ( 'NONE', #126, #13 ) ;
#156 = ORIENTED_EDGE ( 'NONE', *, *, #161, .T. ) ;
#157 = UNCERTAINTY_MEASURE_WITH_UNIT (LENGTH_MEASURE( 1.000000000000000082E-05 ), #80, 'distance_accuracy_value', 'NONE');
#158 = ORIENTED_EDGE ( 'NONE', *, *, #32, .T. ) ;
#159 = CALENDAR_DATE ( 2020, 3, 11 ) ;
#160 = ADVANCED_BREP_SHAPE_REPRESENTATION ( 'Web Model 15426_15790', ( #116, #84 ), #86 ) ;
#161 = EDGE_CURVE ( 'NONE', #25, #121, #145, .T. ) ;
#162 = CARTESIAN_POINT ( 'NONE',  ( -25.39999999999999858, 0.0000000000000000000, 2.000000000000000000 ) ) ;
#163 = DIRECTION ( 'NONE',  ( 0.0000000000000000000, 0.0000000000000000000, 1.000000000000000000 ) ) ;
#164 = DATE_AND_TIME ( #159, #18 ) ;
#165 = DIRECTION ( 'NONE',  ( 1.000000000000000000, 0.0000000000000000000, -0.0000000000000000000 ) ) ;
#166 = PLANE ( 'NONE',  #123 ) ;
#167 = APPLICATION_CONTEXT ( 'configuration controlled 3d designs of mechanical parts and assemblies' ) ;
#168 = CARTESIAN_POINT ( 'NONE',  ( 0.0000000000000000000, 0.0000000000000000000, 2.000000000000000000 ) ) ;
#169 =( NAMED_UNIT ( * ) SI_UNIT ( $, .STERADIAN. ) SOLID_ANGLE_UNIT ( ) );
#170 = AXIS2_PLACEMENT_3D ( 'NONE', #168, #51, #154 ) ;
#171 = APPROVAL_PERSON_ORGANIZATION ( #11, #53, #136 ) ;
#172 = FACE_OUTER_BOUND ( 'NONE', #85, .T. ) ;
#173 = FACE_OUTER_BOUND ( 'NONE', #17, .T. ) ;
#174 = PRODUCT ( 'Web Model 15426_15790', 'Web Model 15426_15790', '', ( #91 ) ) ;
#175 = PERSON_AND_ORGANIZATION ( #27, #99 ) ;
ENDSEC;
END-ISO-10303-21;
