ISO-10303-21;
HEADER;
FILE_DESCRIPTION (( 'STEP AP203' ),
    '1' );
FILE_NAME ('Web Model 14955_18320.step',
    '2021-06-28T13:25:53',
    ( '' ),
    ( '' ),
    'SwSTEP 2.0',
    'SolidWorks 2018',
    '' );
FILE_SCHEMA (( 'CONFIG_CONTROL_DESIGN' ));
ENDSEC;

DATA;
#1 = CC_DESIGN_APPROVAL ( #159, ( #130 ) ) ;
#2 = CIRCLE ( 'NONE', #55, 2.499999999999998668 ) ;
#3 = DIRECTION ( 'NONE',  ( -1.000000000000000000, -0.000000000000000000, -0.000000000000000000 ) ) ;
#4 = ORIENTED_EDGE ( 'NONE', *, *, #35, .F. ) ;
#5 =( NAMED_UNIT ( * ) PLANE_ANGLE_UNIT ( ) SI_UNIT ( $, .RADIAN. ) );
#6 =( NAMED_UNIT ( * ) SI_UNIT ( $, .STERADIAN. ) SOLID_ANGLE_UNIT ( ) );
#7 = APPLICATION_CONTEXT ( 'configuration controlled 3d designs of mechanical parts and assemblies' ) ;
#8 = ADVANCED_FACE ( 'NONE', ( #18 ), #106, .T. ) ;
#9 = FACE_OUTER_BOUND ( 'NONE', #38, .T. ) ;
#10 = PERSON_AND_ORGANIZATION ( #124, #46 ) ;
#11 = AXIS2_PLACEMENT_3D ( 'NONE', #85, #27, #154 ) ;
#12 = CC_DESIGN_PERSON_AND_ORGANIZATION_ASSIGNMENT ( #34, #32, ( #148 ) ) ;
#13 = PERSON_AND_ORGANIZATION ( #124, #46 ) ;
#14 = CC_DESIGN_PERSON_AND_ORGANIZATION_ASSIGNMENT ( #75, #114, ( #148 ) ) ;
#15 = APPLICATION_CONTEXT ( 'configuration controlled 3d designs of mechanical parts and assemblies' ) ;
#16 = ORIENTED_EDGE ( 'NONE', *, *, #145, .T. ) ;
#17 = AXIS2_PLACEMENT_3D ( 'NONE', #52, #155, #28 ) ;
#18 = FACE_OUTER_BOUND ( 'NONE', #165, .T. ) ;
#19 = AXIS2_PLACEMENT_3D ( 'NONE', #65, #86, #66 ) ;
#20 = APPROVAL ( #129, 'UNSPECIFIED' ) ;
#21 = VERTEX_POINT ( 'NONE', #81 ) ;
#22 = CC_DESIGN_PERSON_AND_ORGANIZATION_ASSIGNMENT ( #102, #87, ( #122 ) ) ;
#23 = COORDINATED_UNIVERSAL_TIME_OFFSET ( 5, 0, .BEHIND. ) ;
#24 = CARTESIAN_POINT ( 'NONE',  ( 0.5000000000000000000, 0.000000000000000000, 0.000000000000000000 ) ) ;
#25 = PLANE ( 'NONE',  #136 ) ;
#26 = ORIENTED_EDGE ( 'NONE', *, *, #89, .F. ) ;
#27 = DIRECTION ( 'NONE',  ( -1.000000000000000000, -0.000000000000000000, -0.000000000000000000 ) ) ;
#28 = DIRECTION ( 'NONE',  ( 1.000000000000000000, 0.000000000000000000, 0.000000000000000000 ) ) ;
#29 = CARTESIAN_POINT ( 'NONE',  ( -0.5000000000000000000, 3.061616997868381662E-16, -2.499999999999998668 ) ) ;
#30 = APPLICATION_PROTOCOL_DEFINITION ( 'international standard', 'config_control_design', 1994, #7 ) ;
#31 = AXIS2_PLACEMENT_3D ( 'NONE', #110, #152, #63 ) ;
#32 = PERSON_AND_ORGANIZATION_ROLE ( 'design_supplier' ) ;
#33 = LINE ( 'NONE', #82, #134 ) ;
#34 = PERSON_AND_ORGANIZATION ( #124, #46 ) ;
#35 = EDGE_CURVE ( 'NONE', #41, #149, #33, .T. ) ;
#36 = CC_DESIGN_APPROVAL ( #20, ( #148 ) ) ;
#37 = CYLINDRICAL_SURFACE ( 'NONE', #11, 2.499999999999998668 ) ;
#38 = EDGE_LOOP ( 'NONE', ( #77, #59, #56, #4 ) ) ;
#39 = DATE_AND_TIME ( #64, #101 ) ;
#40 = PRODUCT_DEFINITION_SHAPE ( 'NONE', 'NONE',  #130 ) ;
#41 = VERTEX_POINT ( 'NONE', #150 ) ;
#42 = LOCAL_TIME ( 9, 25, 53.00000000000000000, #143 ) ;
#43 = CARTESIAN_POINT ( 'NONE',  ( 0.5000000000000000000, 0.000000000000000000, 0.000000000000000000 ) ) ;
#44 = APPLICATION_PROTOCOL_DEFINITION ( 'international standard', 'config_control_design', 1994, #15 ) ;
#45 = CC_DESIGN_DATE_AND_TIME_ASSIGNMENT ( #58, #158, ( #122 ) ) ;
#46 = ORGANIZATION ( 'UNSPECIFIED', 'UNSPECIFIED', '' ) ;
#47 = APPROVAL_PERSON_ORGANIZATION ( #13, #159, #168 ) ;
#48 = AXIS2_PLACEMENT_3D ( 'NONE', #24, #93, #164 ) ;
#49 = VERTEX_POINT ( 'NONE', #29 ) ;
#50 = CARTESIAN_POINT ( 'NONE',  ( -0.5000000000000000000, 0.000000000000000000, 0.000000000000000000 ) ) ;
#51 = ORIENTED_EDGE ( 'NONE', *, *, #99, .F. ) ;
#52 = CARTESIAN_POINT ( 'NONE',  ( 0.000000000000000000, 0.000000000000000000, 0.000000000000000000 ) ) ;
#53 = APPROVAL_ROLE ( '' ) ;
#54 = PERSON_AND_ORGANIZATION ( #124, #46 ) ;
#55 = AXIS2_PLACEMENT_3D ( 'NONE', #127, #138, #95 ) ;
#56 = ORIENTED_EDGE ( 'NONE', *, *, #89, .T. ) ;
#57 = APPROVAL ( #118, 'UNSPECIFIED' ) ;
#58 = DATE_AND_TIME ( #135, #172 ) ;
#59 = ORIENTED_EDGE ( 'NONE', *, *, #99, .T. ) ;
#60 = COORDINATED_UNIVERSAL_TIME_OFFSET ( 5, 0, .BEHIND. ) ;
#61 = COORDINATED_UNIVERSAL_TIME_OFFSET ( 5, 0, .BEHIND. ) ;
#62 = SHAPE_DEFINITION_REPRESENTATION ( #40, #132 ) ;
#63 = DIRECTION ( 'NONE',  ( 0.000000000000000000, 0.000000000000000000, -1.000000000000000000 ) ) ;
#64 = CALENDAR_DATE ( 2021, 28, 6 ) ;
#65 = CARTESIAN_POINT ( 'NONE',  ( 0.5000000000000000000, 0.000000000000000000, 0.000000000000000000 ) ) ;
#66 = DIRECTION ( 'NONE',  ( 0.000000000000000000, 0.000000000000000000, 1.000000000000000000 ) ) ;
#67 = MECHANICAL_CONTEXT ( 'NONE', #15, 'mechanical' ) ;
#68 = SECURITY_CLASSIFICATION_LEVEL ( 'unclassified' ) ;
#69 = AXIS2_PLACEMENT_3D ( 'NONE', #126, #153, #137 ) ;
#70 = PERSON_AND_ORGANIZATION_ROLE ( 'creator' ) ;
#71 = CC_DESIGN_APPROVAL ( #57, ( #122 ) ) ;
#72 = FACE_OUTER_BOUND ( 'NONE', #175, .T. ) ;
#73 = APPROVAL_DATE_TIME ( #107, #57 ) ;
#74 = COORDINATED_UNIVERSAL_TIME_OFFSET ( 5, 0, .BEHIND. ) ;
#75 = PERSON_AND_ORGANIZATION ( #124, #46 ) ;
#76 = PRODUCT_RELATED_PRODUCT_CATEGORY ( 'detail', '', ( #83 ) ) ;
#77 = ORIENTED_EDGE ( 'NONE', *, *, #145, .F. ) ;
#78 = DATE_AND_TIME ( #108, #151 ) ;
#79 = APPROVAL_PERSON_ORGANIZATION ( #10, #20, #53 ) ;
#80 = UNCERTAINTY_MEASURE_WITH_UNIT (LENGTH_MEASURE( 1.000000000000000082E-05 ), #84, 'distance_accuracy_value', 'NONE');
#81 = CARTESIAN_POINT ( 'NONE',  ( 0.5000000000000000000, 3.061616997868381662E-16, -2.499999999999998668 ) ) ;
#82 = CARTESIAN_POINT ( 'NONE',  ( 0.5000000000000000000, 0.000000000000000000, 2.499999999999998668 ) ) ;
#83 = PRODUCT ( 'Web Model 14955_18320', 'Web Model 14955_18320', '', ( #67 ) ) ;
#84 =( LENGTH_UNIT ( ) NAMED_UNIT ( * ) SI_UNIT ( .MILLI., .METRE. ) );
#85 = CARTESIAN_POINT ( 'NONE',  ( 0.5000000000000000000, 0.000000000000000000, 0.000000000000000000 ) ) ;
#86 = DIRECTION ( 'NONE',  ( -1.000000000000000000, -0.000000000000000000, -0.000000000000000000 ) ) ;
#87 = PERSON_AND_ORGANIZATION_ROLE ( 'classification_officer' ) ;
#88 = PERSON_AND_ORGANIZATION ( #124, #46 ) ;
#89 = EDGE_CURVE ( 'NONE', #49, #149, #161, .T. ) ;
#90 = FACE_OUTER_BOUND ( 'NONE', #104, .T. ) ;
#91 = EDGE_CURVE ( 'NONE', #149, #49, #125, .T. ) ;
#92 = ORIENTED_EDGE ( 'NONE', *, *, #91, .F. ) ;
#93 = DIRECTION ( 'NONE',  ( 1.000000000000000000, 0.000000000000000000, 0.000000000000000000 ) ) ;
#94 = DIRECTION ( 'NONE',  ( 1.000000000000000000, 0.000000000000000000, 0.000000000000000000 ) ) ;
#95 = DIRECTION ( 'NONE',  ( 0.000000000000000000, 0.000000000000000000, -1.000000000000000000 ) ) ;
#96 = LINE ( 'NONE', #97, #170 ) ;
#97 = CARTESIAN_POINT ( 'NONE',  ( 0.5000000000000000000, 3.061616997868381662E-16, -2.499999999999998668 ) ) ;
#98 = APPROVAL_PERSON_ORGANIZATION ( #54, #57, #141 ) ;
#99 = EDGE_CURVE ( 'NONE', #21, #49, #96, .T. ) ;
#100 = ORIENTED_EDGE ( 'NONE', *, *, #157, .F. ) ;
#101 = LOCAL_TIME ( 9, 25, 53.00000000000000000, #60 ) ;
#102 = PERSON_AND_ORGANIZATION ( #124, #46 ) ;
#103 = CYLINDRICAL_SURFACE ( 'NONE', #19, 2.499999999999998668 ) ;
#104 = EDGE_LOOP ( 'NONE', ( #51, #100, #115, #147 ) ) ;
#105 = CALENDAR_DATE ( 2021, 28, 6 ) ;
#106 = PLANE ( 'NONE',  #48 ) ;
#107 = DATE_AND_TIME ( #169, #133 ) ;
#108 = CALENDAR_DATE ( 2021, 28, 6 ) ;
#109 = APPROVAL_DATE_TIME ( #39, #20 ) ;
#110 = CARTESIAN_POINT ( 'NONE',  ( -0.5000000000000000000, 0.000000000000000000, 0.000000000000000000 ) ) ;
#111 = DIRECTION ( 'NONE',  ( 1.000000000000000000, 0.000000000000000000, 0.000000000000000000 ) ) ;
#112 = DIRECTION ( 'NONE',  ( 0.000000000000000000, 0.000000000000000000, -1.000000000000000000 ) ) ;
#113 = CARTESIAN_POINT ( 'NONE',  ( -0.5000000000000000000, 0.000000000000000000, 2.499999999999998668 ) ) ;
#114 = PERSON_AND_ORGANIZATION_ROLE ( 'creator' ) ;
#115 = ORIENTED_EDGE ( 'NONE', *, *, #35, .T. ) ;
#116 = DATE_AND_TIME ( #105, #42 ) ;
#117 = ADVANCED_FACE ( 'NONE', ( #90 ), #37, .T. ) ;
#118 = APPROVAL_STATUS ( 'not_yet_approved' ) ;
#119 =( GEOMETRIC_REPRESENTATION_CONTEXT ( 3 ) GLOBAL_UNCERTAINTY_ASSIGNED_CONTEXT ( ( #80 ) ) GLOBAL_UNIT_ASSIGNED_CONTEXT ( ( #84, #5, #6 ) ) REPRESENTATION_CONTEXT ( 'NONE', 'WORKASPACE' ) );
#120 = CC_DESIGN_PERSON_AND_ORGANIZATION_ASSIGNMENT ( #121, #166, ( #83 ) ) ;
#121 = PERSON_AND_ORGANIZATION ( #124, #46 ) ;
#122 = SECURITY_CLASSIFICATION ( '', '', #68 ) ;
#123 = APPROVAL_DATE_TIME ( #78, #159 ) ;
#124 = PERSON ( 'UNSPECIFIED', 'UNSPECIFIED', 'UNSPECIFIED', ('UNSPECIFIED'), ('UNSPECIFIED'), ('UNSPECIFIED') ) ;
#125 = CIRCLE ( 'NONE', #69, 2.499999999999998668 ) ;
#126 = CARTESIAN_POINT ( 'NONE',  ( -0.5000000000000000000, 0.000000000000000000, 0.000000000000000000 ) ) ;
#127 = CARTESIAN_POINT ( 'NONE',  ( 0.5000000000000000000, 0.000000000000000000, 0.000000000000000000 ) ) ;
#128 = APPROVAL_STATUS ( 'not_yet_approved' ) ;
#129 = APPROVAL_STATUS ( 'not_yet_approved' ) ;
#130 = PRODUCT_DEFINITION ( 'UNKNOWN', '', #148, #171 ) ;
#131 = ORIENTED_EDGE ( 'NONE', *, *, #157, .T. ) ;
#132 = ADVANCED_BREP_SHAPE_REPRESENTATION ( 'Web Model 14955_18320', ( #144, #17 ), #119 ) ;
#133 = LOCAL_TIME ( 9, 25, 53.00000000000000000, #23 ) ;
#134 = VECTOR ( 'NONE', #3, 1000.000000000000000 ) ;
#135 = CALENDAR_DATE ( 2021, 28, 6 ) ;
#136 = AXIS2_PLACEMENT_3D ( 'NONE', #50, #111, #139 ) ;
#137 = DIRECTION ( 'NONE',  ( 0.000000000000000000, 0.000000000000000000, -1.000000000000000000 ) ) ;
#138 = DIRECTION ( 'NONE',  ( 1.000000000000000000, 0.000000000000000000, 0.000000000000000000 ) ) ;
#139 = DIRECTION ( 'NONE',  ( 0.000000000000000000, 0.000000000000000000, -1.000000000000000000 ) ) ;
#140 = CC_DESIGN_SECURITY_CLASSIFICATION ( #122, ( #148 ) ) ;
#141 = APPROVAL_ROLE ( '' ) ;
#142 = CLOSED_SHELL ( 'NONE', ( #160, #117, #8, #156 ) ) ;
#143 = COORDINATED_UNIVERSAL_TIME_OFFSET ( 5, 0, .BEHIND. ) ;
#144 = MANIFOLD_SOLID_BREP ( 'Boss-Extrude1', #142 ) ;
#145 = EDGE_CURVE ( 'NONE', #21, #41, #146, .T. ) ;
#146 = CIRCLE ( 'NONE', #173, 2.499999999999998668 ) ;
#147 = ORIENTED_EDGE ( 'NONE', *, *, #91, .T. ) ;
#148 = PRODUCT_DEFINITION_FORMATION_WITH_SPECIFIED_SOURCE ( 'ANY', '', #83, .NOT_KNOWN. ) ;
#149 = VERTEX_POINT ( 'NONE', #113 ) ;
#150 = CARTESIAN_POINT ( 'NONE',  ( 0.5000000000000000000, 0.000000000000000000, 2.499999999999998668 ) ) ;
#151 = LOCAL_TIME ( 9, 25, 53.00000000000000000, #74 ) ;
#152 = DIRECTION ( 'NONE',  ( 1.000000000000000000, 0.000000000000000000, 0.000000000000000000 ) ) ;
#153 = DIRECTION ( 'NONE',  ( 1.000000000000000000, 0.000000000000000000, 0.000000000000000000 ) ) ;
#154 = DIRECTION ( 'NONE',  ( 0.000000000000000000, 0.000000000000000000, 1.000000000000000000 ) ) ;
#155 = DIRECTION ( 'NONE',  ( 0.000000000000000000, 0.000000000000000000, 1.000000000000000000 ) ) ;
#156 = ADVANCED_FACE ( 'NONE', ( #72 ), #25, .F. ) ;
#157 = EDGE_CURVE ( 'NONE', #41, #21, #2, .T. ) ;
#158 = DATE_TIME_ROLE ( 'classification_date' ) ;
#159 = APPROVAL ( #128, 'UNSPECIFIED' ) ;
#160 = ADVANCED_FACE ( 'NONE', ( #9 ), #103, .T. ) ;
#161 = CIRCLE ( 'NONE', #31, 2.499999999999998668 ) ;
#162 = CC_DESIGN_PERSON_AND_ORGANIZATION_ASSIGNMENT ( #88, #70, ( #130 ) ) ;
#163 = DIRECTION ( 'NONE',  ( -1.000000000000000000, -0.000000000000000000, -0.000000000000000000 ) ) ;
#164 = DIRECTION ( 'NONE',  ( 0.000000000000000000, 0.000000000000000000, -1.000000000000000000 ) ) ;
#165 = EDGE_LOOP ( 'NONE', ( #131, #16 ) ) ;
#166 = PERSON_AND_ORGANIZATION_ROLE ( 'design_owner' ) ;
#167 = DATE_TIME_ROLE ( 'creation_date' ) ;
#168 = APPROVAL_ROLE ( '' ) ;
#169 = CALENDAR_DATE ( 2021, 28, 6 ) ;
#170 = VECTOR ( 'NONE', #163, 1000.000000000000000 ) ;
#171 = DESIGN_CONTEXT ( 'detailed design', #7, 'design' ) ;
#172 = LOCAL_TIME ( 9, 25, 53.00000000000000000, #61 ) ;
#173 = AXIS2_PLACEMENT_3D ( 'NONE', #43, #94, #112 ) ;
#174 = CC_DESIGN_DATE_AND_TIME_ASSIGNMENT ( #116, #167, ( #130 ) ) ;
#175 = EDGE_LOOP ( 'NONE', ( #92, #26 ) ) ;
ENDSEC;
END-ISO-10303-21;
