ISO-10303-21;
HEADER;
FILE_DESCRIPTION (( 'STEP AP203' ),
    '1' );
FILE_NAME ('Web Model 19841_19881.step',
    '2022-04-06T15:17:11',
    ( 'WC' ),
    ( 'Windows Central' ),
    'SwSTEP 2.0',
    'SolidWorks 2021',
    '' );
FILE_SCHEMA (( 'CONFIG_CONTROL_DESIGN' ));
ENDSEC;

DATA;
#1 = CC_DESIGN_APPROVAL ( #162, ( #84 ) ) ;
#2 = CC_DESIGN_PERSON_AND_ORGANIZATION_ASSIGNMENT ( #55, #104, ( #10 ) ) ;
#3 = EDGE_LOOP ( 'NONE', ( #136, #130, #5, #137 ) ) ;
#4 = CALENDAR_DATE ( 2022, 6, 4 ) ;
#5 = ORIENTED_EDGE ( 'NONE', *, *, #166, .T. ) ;
#6 = COORDINATED_UNIVERSAL_TIME_OFFSET ( 5, 0, .BEHIND. ) ;
#7 = PERSON_AND_ORGANIZATION ( #39, #79 ) ;
#8 = CC_DESIGN_SECURITY_CLASSIFICATION ( #84, ( #10 ) ) ;
#9 = AXIS2_PLACEMENT_3D ( 'NONE', #97, #101, #95 ) ;
#10 = PRODUCT_DEFINITION_FORMATION_WITH_SPECIFIED_SOURCE ( 'ANY', '', #113, .NOT_KNOWN. ) ;
#11 =( NAMED_UNIT ( * ) PLANE_ANGLE_UNIT ( ) SI_UNIT ( $, .RADIAN. ) );
#12 = APPROVAL ( #129, 'UNSPECIFIED' ) ;
#13 = PRODUCT_RELATED_PRODUCT_CATEGORY ( 'detail', '', ( #113 ) ) ;
#14 = DATE_AND_TIME ( #155, #35 ) ;
#15 = CARTESIAN_POINT ( 'NONE',  ( 25.00000000000000000, 3.061616997868383043E-15, 2.000000000000000000 ) ) ;
#16 = PERSON_AND_ORGANIZATION_ROLE ( 'creator' ) ;
#17 = APPROVAL_STATUS ( 'not_yet_approved' ) ;
#18 = PERSON_AND_ORGANIZATION ( #39, #79 ) ;
#19 = APPROVAL_PERSON_ORGANIZATION ( #140, #36, #150 ) ;
#20 = DIRECTION ( 'NONE',  ( 1.000000000000000000, 0.000000000000000000, -0.000000000000000000 ) ) ;
#21 = EDGE_CURVE ( 'NONE', #85, #151, #171, .T. ) ;
#22 = CARTESIAN_POINT ( 'NONE',  ( 0.000000000000000000, 0.000000000000000000, 2.000000000000000000 ) ) ;
#23 = LOCAL_TIME ( 11, 17, 11.00000000000000000, #57 ) ;
#24 = DIRECTION ( 'NONE',  ( 1.000000000000000000, 0.000000000000000000, -0.000000000000000000 ) ) ;
#25 = DIRECTION ( 'NONE',  ( -1.000000000000000000, 0.000000000000000000, 0.000000000000000000 ) ) ;
#26 = EDGE_CURVE ( 'NONE', #151, #85, #135, .T. ) ;
#27 = DATE_AND_TIME ( #74, #68 ) ;
#28 = PERSON_AND_ORGANIZATION ( #39, #79 ) ;
#29 = ORIENTED_EDGE ( 'NONE', *, *, #26, .F. ) ;
#30 = COORDINATED_UNIVERSAL_TIME_OFFSET ( 5, 0, .BEHIND. ) ;
#31 = DIRECTION ( 'NONE',  ( 0.000000000000000000, 0.000000000000000000, 1.000000000000000000 ) ) ;
#32 = DIRECTION ( 'NONE',  ( 0.000000000000000000, 0.000000000000000000, 1.000000000000000000 ) ) ;
#33 = DATE_TIME_ROLE ( 'classification_date' ) ;
#34 = CALENDAR_DATE ( 2022, 6, 4 ) ;
#35 = LOCAL_TIME ( 11, 17, 11.00000000000000000, #154 ) ;
#36 = APPROVAL ( #17, 'UNSPECIFIED' ) ;
#37 = DESIGN_CONTEXT ( 'detailed design', #157, 'design' ) ;
#38 = VECTOR ( 'NONE', #131, 1000.000000000000000 ) ;
#39 = PERSON ( 'UNSPECIFIED', 'UNSPECIFIED', 'UNSPECIFIED', ('UNSPECIFIED'), ('UNSPECIFIED'), ('UNSPECIFIED') ) ;
#40 = CARTESIAN_POINT ( 'NONE',  ( 0.000000000000000000, 0.000000000000000000, 2.000000000000000000 ) ) ;
#41 = CYLINDRICAL_SURFACE ( 'NONE', #93, 25.00000000000000000 ) ;
#42 =( NAMED_UNIT ( * ) SI_UNIT ( $, .STERADIAN. ) SOLID_ANGLE_UNIT ( ) );
#43 = EDGE_LOOP ( 'NONE', ( #118, #56, #117, #163 ) ) ;
#44 = PERSON_AND_ORGANIZATION ( #39, #79 ) ;
#45 = CC_DESIGN_APPROVAL ( #36, ( #10 ) ) ;
#46 = APPROVAL_DATE_TIME ( #47, #36 ) ;
#47 = DATE_AND_TIME ( #4, #124 ) ;
#48 = CALENDAR_DATE ( 2022, 6, 4 ) ;
#49 = AXIS2_PLACEMENT_3D ( 'NONE', #121, #105, #20 ) ;
#50 = CARTESIAN_POINT ( 'NONE',  ( 0.000000000000000000, 0.000000000000000000, 2.000000000000000000 ) ) ;
#51 = CC_DESIGN_DATE_AND_TIME_ASSIGNMENT ( #106, #33, ( #84 ) ) ;
#52 = CIRCLE ( 'NONE', #100, 25.00000000000000000 ) ;
#53 = VECTOR ( 'NONE', #172, 1000.000000000000000 ) ;
#54 = VERTEX_POINT ( 'NONE', #15 ) ;
#55 = PERSON_AND_ORGANIZATION ( #39, #79 ) ;
#56 = ORIENTED_EDGE ( 'NONE', *, *, #132, .T. ) ;
#57 = COORDINATED_UNIVERSAL_TIME_OFFSET ( 5, 0, .BEHIND. ) ;
#58 = EDGE_CURVE ( 'NONE', #54, #139, #52, .T. ) ;
#59 = FACE_OUTER_BOUND ( 'NONE', #119, .T. ) ;
#60 = CIRCLE ( 'NONE', #109, 25.00000000000000000 ) ;
#61 = MECHANICAL_CONTEXT ( 'NONE', #148, 'mechanical' ) ;
#62 = DIRECTION ( 'NONE',  ( 1.000000000000000000, 0.000000000000000000, 0.000000000000000000 ) ) ;
#63 = DIRECTION ( 'NONE',  ( 0.000000000000000000, 0.000000000000000000, 1.000000000000000000 ) ) ;
#64 = CYLINDRICAL_SURFACE ( 'NONE', #116, 25.00000000000000000 ) ;
#65 = CC_DESIGN_APPROVAL ( #12, ( #94 ) ) ;
#66 = CC_DESIGN_DATE_AND_TIME_ASSIGNMENT ( #127, #83, ( #94 ) ) ;
#67 = DIRECTION ( 'NONE',  ( -0.000000000000000000, -0.000000000000000000, -1.000000000000000000 ) ) ;
#68 = LOCAL_TIME ( 11, 17, 11.00000000000000000, #30 ) ;
#69 = APPLICATION_PROTOCOL_DEFINITION ( 'international standard', 'config_control_design', 1994, #148 ) ;
#70 = CARTESIAN_POINT ( 'NONE',  ( 0.000000000000000000, 0.000000000000000000, 2.000000000000000000 ) ) ;
#71 = COORDINATED_UNIVERSAL_TIME_OFFSET ( 5, 0, .BEHIND. ) ;
#72 = APPROVAL_STATUS ( 'not_yet_approved' ) ;
#73 = AXIS2_PLACEMENT_3D ( 'NONE', #40, #91, #24 ) ;
#74 = CALENDAR_DATE ( 2022, 6, 4 ) ;
#75 = LINE ( 'NONE', #170, #38 ) ;
#76 = AXIS2_PLACEMENT_3D ( 'NONE', #88, #63, #122 ) ;
#77 = DIRECTION ( 'NONE',  ( 0.000000000000000000, 0.000000000000000000, 1.000000000000000000 ) ) ;
#78 = MANIFOLD_SOLID_BREP ( 'Boss-Extrude1', #173 ) ;
#79 = ORGANIZATION ( 'UNSPECIFIED', 'UNSPECIFIED', '' ) ;
#80 = SHAPE_DEFINITION_REPRESENTATION ( #114, #156 ) ;
#81 = CC_DESIGN_PERSON_AND_ORGANIZATION_ASSIGNMENT ( #44, #102, ( #84 ) ) ;
#82 = ORIENTED_EDGE ( 'NONE', *, *, #21, .F. ) ;
#83 = DATE_TIME_ROLE ( 'creation_date' ) ;
#84 = SECURITY_CLASSIFICATION ( '', '', #142 ) ;
#85 = VERTEX_POINT ( 'NONE', #103 ) ;
#86 = APPROVAL_DATE_TIME ( #27, #162 ) ;
#87 = ORIENTED_EDGE ( 'NONE', *, *, #126, .T. ) ;
#88 = CARTESIAN_POINT ( 'NONE',  ( 0.000000000000000000, 0.000000000000000000, 0.000000000000000000 ) ) ;
#89 = ADVANCED_FACE ( 'NONE', ( #59 ), #145, .T. ) ;
#90 = CARTESIAN_POINT ( 'NONE',  ( -25.00000000000000000, 0.000000000000000000, 0.000000000000000000 ) ) ;
#91 = DIRECTION ( 'NONE',  ( 0.000000000000000000, 0.000000000000000000, 1.000000000000000000 ) ) ;
#92 = CARTESIAN_POINT ( 'NONE',  ( 0.000000000000000000, 0.000000000000000000, 2.000000000000000000 ) ) ;
#93 = AXIS2_PLACEMENT_3D ( 'NONE', #92, #146, #25 ) ;
#94 = PRODUCT_DEFINITION ( 'UNKNOWN', '', #10, #37 ) ;
#95 = DIRECTION ( 'NONE',  ( 1.000000000000000000, 0.000000000000000000, 0.000000000000000000 ) ) ;
#96 = ADVANCED_FACE ( 'NONE', ( #108 ), #64, .T. ) ;
#97 = CARTESIAN_POINT ( 'NONE',  ( 0.000000000000000000, 0.000000000000000000, 0.000000000000000000 ) ) ;
#98 = APPROVAL_ROLE ( '' ) ;
#99 = APPROVAL_PERSON_ORGANIZATION ( #28, #12, #152 ) ;
#100 = AXIS2_PLACEMENT_3D ( 'NONE', #70, #31, #62 ) ;
#101 = DIRECTION ( 'NONE',  ( 0.000000000000000000, 0.000000000000000000, 1.000000000000000000 ) ) ;
#102 = PERSON_AND_ORGANIZATION_ROLE ( 'classification_officer' ) ;
#103 = CARTESIAN_POINT ( 'NONE',  ( 25.00000000000000000, 3.061616997868383043E-15, 0.000000000000000000 ) ) ;
#104 = PERSON_AND_ORGANIZATION_ROLE ( 'creator' ) ;
#105 = DIRECTION ( 'NONE',  ( 0.000000000000000000, 0.000000000000000000, 1.000000000000000000 ) ) ;
#106 = DATE_AND_TIME ( #48, #23 ) ;
#107 = UNCERTAINTY_MEASURE_WITH_UNIT (LENGTH_MEASURE( 1.000000000000000082E-05 ), #175, 'distance_accuracy_value', 'NONE');
#108 = FACE_OUTER_BOUND ( 'NONE', #3, .T. ) ;
#109 = AXIS2_PLACEMENT_3D ( 'NONE', #22, #77, #158 ) ;
#110 = CARTESIAN_POINT ( 'NONE',  ( -25.00000000000000000, 0.000000000000000000, 2.000000000000000000 ) ) ;
#111 = DIRECTION ( 'NONE',  ( -1.000000000000000000, 0.000000000000000000, 0.000000000000000000 ) ) ;
#112 = LOCAL_TIME ( 11, 17, 11.00000000000000000, #6 ) ;
#113 = PRODUCT ( 'Web Model 19841_19881', 'Web Model 19841_19881', '', ( #61 ) ) ;
#114 = PRODUCT_DEFINITION_SHAPE ( 'NONE', 'NONE',  #94 ) ;
#115 = ADVANCED_FACE ( 'NONE', ( #160 ), #41, .T. ) ;
#116 = AXIS2_PLACEMENT_3D ( 'NONE', #50, #67, #111 ) ;
#117 = ORIENTED_EDGE ( 'NONE', *, *, #21, .T. ) ;
#118 = ORIENTED_EDGE ( 'NONE', *, *, #58, .F. ) ;
#119 = EDGE_LOOP ( 'NONE', ( #87, #128 ) ) ;
#120 = APPLICATION_PROTOCOL_DEFINITION ( 'international standard', 'config_control_design', 1994, #157 ) ;
#121 = CARTESIAN_POINT ( 'NONE',  ( 0.000000000000000000, 0.000000000000000000, 0.000000000000000000 ) ) ;
#122 = DIRECTION ( 'NONE',  ( 1.000000000000000000, 0.000000000000000000, 0.000000000000000000 ) ) ;
#123 = CC_DESIGN_PERSON_AND_ORGANIZATION_ASSIGNMENT ( #7, #165, ( #10 ) ) ;
#124 = LOCAL_TIME ( 11, 17, 11.00000000000000000, #71 ) ;
#125 = CARTESIAN_POINT ( 'NONE',  ( 25.00000000000000000, 3.061616997868383043E-15, 2.000000000000000000 ) ) ;
#126 = EDGE_CURVE ( 'NONE', #139, #54, #60, .T. ) ;
#127 = DATE_AND_TIME ( #34, #112 ) ;
#128 = ORIENTED_EDGE ( 'NONE', *, *, #58, .T. ) ;
#129 = APPROVAL_STATUS ( 'not_yet_approved' ) ;
#130 = ORIENTED_EDGE ( 'NONE', *, *, #126, .F. ) ;
#131 = DIRECTION ( 'NONE',  ( -0.000000000000000000, -0.000000000000000000, -1.000000000000000000 ) ) ;
#132 = EDGE_CURVE ( 'NONE', #54, #85, #133, .T. ) ;
#133 = LINE ( 'NONE', #125, #53 ) ;
#134 = FACE_OUTER_BOUND ( 'NONE', #164, .T. ) ;
#135 = CIRCLE ( 'NONE', #174, 25.00000000000000000 ) ;
#136 = ORIENTED_EDGE ( 'NONE', *, *, #132, .F. ) ;
#137 = ORIENTED_EDGE ( 'NONE', *, *, #26, .T. ) ;
#138 = PERSON_AND_ORGANIZATION ( #39, #79 ) ;
#139 = VERTEX_POINT ( 'NONE', #110 ) ;
#140 = PERSON_AND_ORGANIZATION ( #39, #79 ) ;
#141 = PLANE ( 'NONE',  #49 ) ;
#142 = SECURITY_CLASSIFICATION_LEVEL ( 'unclassified' ) ;
#143 = CC_DESIGN_PERSON_AND_ORGANIZATION_ASSIGNMENT ( #168, #169, ( #113 ) ) ;
#144 = APPROVAL_PERSON_ORGANIZATION ( #18, #162, #98 ) ;
#145 = PLANE ( 'NONE',  #73 ) ;
#146 = DIRECTION ( 'NONE',  ( -0.000000000000000000, -0.000000000000000000, -1.000000000000000000 ) ) ;
#147 =( GEOMETRIC_REPRESENTATION_CONTEXT ( 3 ) GLOBAL_UNCERTAINTY_ASSIGNED_CONTEXT ( ( #107 ) ) GLOBAL_UNIT_ASSIGNED_CONTEXT ( ( #175, #11, #42 ) ) REPRESENTATION_CONTEXT ( 'NONE', 'WORKASPACE' ) );
#148 = APPLICATION_CONTEXT ( 'configuration controlled 3d designs of mechanical parts and assemblies' ) ;
#149 = DIRECTION ( 'NONE',  ( 1.000000000000000000, 0.000000000000000000, 0.000000000000000000 ) ) ;
#150 = APPROVAL_ROLE ( '' ) ;
#151 = VERTEX_POINT ( 'NONE', #90 ) ;
#152 = APPROVAL_ROLE ( '' ) ;
#153 = CARTESIAN_POINT ( 'NONE',  ( 0.000000000000000000, 0.000000000000000000, 0.000000000000000000 ) ) ;
#154 = COORDINATED_UNIVERSAL_TIME_OFFSET ( 5, 0, .BEHIND. ) ;
#155 = CALENDAR_DATE ( 2022, 6, 4 ) ;
#156 = ADVANCED_BREP_SHAPE_REPRESENTATION ( 'Web Model 19841_19881', ( #78, #76 ), #147 ) ;
#157 = APPLICATION_CONTEXT ( 'configuration controlled 3d designs of mechanical parts and assemblies' ) ;
#158 = DIRECTION ( 'NONE',  ( 1.000000000000000000, 0.000000000000000000, 0.000000000000000000 ) ) ;
#159 = CC_DESIGN_PERSON_AND_ORGANIZATION_ASSIGNMENT ( #138, #16, ( #94 ) ) ;
#160 = FACE_OUTER_BOUND ( 'NONE', #43, .T. ) ;
#161 = ADVANCED_FACE ( 'NONE', ( #134 ), #141, .F. ) ;
#162 = APPROVAL ( #72, 'UNSPECIFIED' ) ;
#163 = ORIENTED_EDGE ( 'NONE', *, *, #166, .F. ) ;
#164 = EDGE_LOOP ( 'NONE', ( #29, #82 ) ) ;
#165 = PERSON_AND_ORGANIZATION_ROLE ( 'design_supplier' ) ;
#166 = EDGE_CURVE ( 'NONE', #139, #151, #75, .T. ) ;
#167 = APPROVAL_DATE_TIME ( #14, #12 ) ;
#168 = PERSON_AND_ORGANIZATION ( #39, #79 ) ;
#169 = PERSON_AND_ORGANIZATION_ROLE ( 'design_owner' ) ;
#170 = CARTESIAN_POINT ( 'NONE',  ( -25.00000000000000000, 0.000000000000000000, 2.000000000000000000 ) ) ;
#171 = CIRCLE ( 'NONE', #9, 25.00000000000000000 ) ;
#172 = DIRECTION ( 'NONE',  ( -0.000000000000000000, -0.000000000000000000, -1.000000000000000000 ) ) ;
#173 = CLOSED_SHELL ( 'NONE', ( #115, #96, #89, #161 ) ) ;
#174 = AXIS2_PLACEMENT_3D ( 'NONE', #153, #32, #149 ) ;
#175 =( LENGTH_UNIT ( ) NAMED_UNIT ( * ) SI_UNIT ( .MILLI., .METRE. ) );
ENDSEC;
END-ISO-10303-21;
