ISO-10303-21;
HEADER;
FILE_DESCRIPTION (( 'STEP AP203' ),
    '1' );
FILE_NAME ('Web Model 84463_13334.step',
    '2020-11-04T13:18:06',
    ( '' ),
    ( '' ),
    'SwSTEP 2.0',
    'SolidWorks 2018',
    '' );
FILE_SCHEMA (( 'CONFIG_CONTROL_DESIGN' ));
ENDSEC;

DATA;
#1 = LOCAL_TIME ( 8, 18, 6.000000000000000000, #86 ) ;
#2 = APPROVAL_DATE_TIME ( #112, #85 ) ;
#3 = ADVANCED_FACE ( 'NONE', ( #96 ), #154, .T. ) ;
#4 = ORIENTED_EDGE ( 'NONE', *, *, #7, .T. ) ;
#5 = CALENDAR_DATE ( 2020, 4, 11 ) ;
#6 = PRODUCT_DEFINITION_SHAPE ( 'NONE', 'NONE',  #133 ) ;
#7 = EDGE_CURVE ( 'NONE', #41, #101, #27, .T. ) ;
#8 = EDGE_LOOP ( 'NONE', ( #9, #135, #63, #67 ) ) ;
#9 = ORIENTED_EDGE ( 'NONE', *, *, #15, .T. ) ;
#10 = DIRECTION ( 'NONE',  ( 1.000000000000000000, 0.0000000000000000000, 0.0000000000000000000 ) ) ;
#11 = AXIS2_PLACEMENT_3D ( 'NONE', #73, #48, #57 ) ;
#12 = DIRECTION ( 'NONE',  ( 0.0000000000000000000, 0.0000000000000000000, 1.000000000000000000 ) ) ;
#13 = PERSON_AND_ORGANIZATION ( #17, #94 ) ;
#14 = CC_DESIGN_APPROVAL ( #128, ( #44 ) ) ;
#15 = EDGE_CURVE ( 'NONE', #91, #78, #164, .T. ) ;
#16 = AXIS2_PLACEMENT_3D ( 'NONE', #92, #19, #56 ) ;
#17 = PERSON ( 'UNSPECIFIED', 'UNSPECIFIED', 'UNSPECIFIED', ('UNSPECIFIED'), ('UNSPECIFIED'), ('UNSPECIFIED') ) ;
#18 = COORDINATED_UNIVERSAL_TIME_OFFSET ( 5, 0, .BEHIND. ) ;
#19 = DIRECTION ( 'NONE',  ( 0.0000000000000000000, 0.0000000000000000000, 1.000000000000000000 ) ) ;
#20 = CARTESIAN_POINT ( 'NONE',  ( 7.500000000000000000, 0.0000000000000000000, -2.000000000000000000 ) ) ;
#21 = CARTESIAN_POINT ( 'NONE',  ( 7.500000000000000000, 0.0000000000000000000, 0.0000000000000000000 ) ) ;
#22 = CARTESIAN_POINT ( 'NONE',  ( -7.500000000000000000, 9.184850993605147944E-16, 0.0000000000000000000 ) ) ;
#23 = PERSON_AND_ORGANIZATION_ROLE ( 'creator' ) ;
#24 = AXIS2_PLACEMENT_3D ( 'NONE', #166, #119, #50 ) ;
#25 = PERSON_AND_ORGANIZATION ( #17, #94 ) ;
#26 = DATE_AND_TIME ( #46, #156 ) ;
#27 = CIRCLE ( 'NONE', #68, 7.500000000000000000 ) ;
#28 = ORIENTED_EDGE ( 'NONE', *, *, #115, .F. ) ;
#29 = CC_DESIGN_PERSON_AND_ORGANIZATION_ASSIGNMENT ( #98, #125, ( #44 ) ) ;
#30 = CALENDAR_DATE ( 2020, 4, 11 ) ;
#31 = DIRECTION ( 'NONE',  ( 1.000000000000000000, 0.0000000000000000000, -0.0000000000000000000 ) ) ;
#32 = EDGE_LOOP ( 'NONE', ( #4, #173 ) ) ;
#33 = DIRECTION ( 'NONE',  ( 0.0000000000000000000, 0.0000000000000000000, 1.000000000000000000 ) ) ;
#34 = CARTESIAN_POINT ( 'NONE',  ( 0.0000000000000000000, 0.0000000000000000000, 0.0000000000000000000 ) ) ;
#35 = CC_DESIGN_APPROVAL ( #140, ( #133 ) ) ;
#36 = CARTESIAN_POINT ( 'NONE',  ( -7.500000000000000000, 9.184850993605147944E-16, -2.000000000000000000 ) ) ;
#37 = CC_DESIGN_SECURITY_CLASSIFICATION ( #113, ( #44 ) ) ;
#38 = CALENDAR_DATE ( 2020, 4, 11 ) ;
#39 = EDGE_LOOP ( 'NONE', ( #43, #132 ) ) ;
#40 = CIRCLE ( 'NONE', #159, 7.500000000000000000 ) ;
#41 = VERTEX_POINT ( 'NONE', #21 ) ;
#42 = CC_DESIGN_PERSON_AND_ORGANIZATION_ASSIGNMENT ( #61, #60, ( #44 ) ) ;
#43 = ORIENTED_EDGE ( 'NONE', *, *, #15, .F. ) ;
#44 = PRODUCT_DEFINITION_FORMATION_WITH_SPECIFIED_SOURCE ( 'ANY', '', #118, .NOT_KNOWN. ) ;
#45 = CC_DESIGN_APPROVAL ( #85, ( #113 ) ) ;
#46 = CALENDAR_DATE ( 2020, 4, 11 ) ;
#47 = CARTESIAN_POINT ( 'NONE',  ( 0.0000000000000000000, 0.0000000000000000000, -2.000000000000000000 ) ) ;
#48 = DIRECTION ( 'NONE',  ( 0.0000000000000000000, 0.0000000000000000000, 1.000000000000000000 ) ) ;
#49 = APPROVAL_STATUS ( 'not_yet_approved' ) ;
#50 = DIRECTION ( 'NONE',  ( 1.000000000000000000, 0.0000000000000000000, -0.0000000000000000000 ) ) ;
#51 = CALENDAR_DATE ( 2020, 4, 11 ) ;
#52 = CARTESIAN_POINT ( 'NONE',  ( 0.0000000000000000000, 0.0000000000000000000, -2.000000000000000000 ) ) ;
#53 = EDGE_CURVE ( 'NONE', #78, #91, #40, .T. ) ;
#54 = APPROVAL_DATE_TIME ( #88, #140 ) ;
#55 = FACE_OUTER_BOUND ( 'NONE', #8, .T. ) ;
#56 = DIRECTION ( 'NONE',  ( 1.000000000000000000, 0.0000000000000000000, 0.0000000000000000000 ) ) ;
#57 = DIRECTION ( 'NONE',  ( 1.000000000000000000, 0.0000000000000000000, 0.0000000000000000000 ) ) ;
#58 = CARTESIAN_POINT ( 'NONE',  ( 0.0000000000000000000, 0.0000000000000000000, 0.0000000000000000000 ) ) ;
#59 = PRODUCT_RELATED_PRODUCT_CATEGORY ( 'detail', '', ( #118 ) ) ;
#60 = PERSON_AND_ORGANIZATION_ROLE ( 'design_supplier' ) ;
#61 = PERSON_AND_ORGANIZATION ( #17, #94 ) ;
#62 = ADVANCED_BREP_SHAPE_REPRESENTATION ( 'Web Model 84463_13334', ( #170, #97 ), #121 ) ;
#63 = ORIENTED_EDGE ( 'NONE', *, *, #7, .F. ) ;
#64 = ORIENTED_EDGE ( 'NONE', *, *, #149, .F. ) ;
#65 = DATE_AND_TIME ( #5, #103 ) ;
#66 = CIRCLE ( 'NONE', #168, 7.500000000000000000 ) ;
#67 = ORIENTED_EDGE ( 'NONE', *, *, #143, .F. ) ;
#68 = AXIS2_PLACEMENT_3D ( 'NONE', #34, #123, #120 ) ;
#69 = LINE ( 'NONE', #36, #172 ) ;
#70 = ORIENTED_EDGE ( 'NONE', *, *, #143, .T. ) ;
#71 = APPLICATION_PROTOCOL_DEFINITION ( 'international standard', 'config_control_design', 1994, #90 ) ;
#72 = CARTESIAN_POINT ( 'NONE',  ( 0.0000000000000000000, 0.0000000000000000000, 0.0000000000000000000 ) ) ;
#73 = CARTESIAN_POINT ( 'NONE',  ( 0.0000000000000000000, 0.0000000000000000000, -2.000000000000000000 ) ) ;
#74 =( NAMED_UNIT ( * ) PLANE_ANGLE_UNIT ( ) SI_UNIT ( $, .RADIAN. ) );
#75 = SECURITY_CLASSIFICATION_LEVEL ( 'unclassified' ) ;
#76 = COORDINATED_UNIVERSAL_TIME_OFFSET ( 5, 0, .BEHIND. ) ;
#77 = SHAPE_DEFINITION_REPRESENTATION ( #6, #62 ) ;
#78 = VERTEX_POINT ( 'NONE', #124 ) ;
#79 = APPLICATION_PROTOCOL_DEFINITION ( 'international standard', 'config_control_design', 1994, #151 ) ;
#80 = APPROVAL_PERSON_ORGANIZATION ( #146, #140, #141 ) ;
#81 = PERSON_AND_ORGANIZATION_ROLE ( 'design_owner' ) ;
#82 = CARTESIAN_POINT ( 'NONE',  ( 7.500000000000000000, 0.0000000000000000000, -2.000000000000000000 ) ) ;
#83 = AXIS2_PLACEMENT_3D ( 'NONE', #72, #107, #31 ) ;
#84 = DIRECTION ( 'NONE',  ( 0.0000000000000000000, 0.0000000000000000000, 1.000000000000000000 ) ) ;
#85 = APPROVAL ( #49, 'UNSPECIFIED' ) ;
#86 = COORDINATED_UNIVERSAL_TIME_OFFSET ( 5, 0, .BEHIND. ) ;
#87 = VECTOR ( 'NONE', #106, 1000.000000000000000 ) ;
#88 = DATE_AND_TIME ( #51, #1 ) ;
#89 = FACE_OUTER_BOUND ( 'NONE', #39, .T. ) ;
#90 = APPLICATION_CONTEXT ( 'configuration controlled 3d designs of mechanical parts and assemblies' ) ;
#91 = VERTEX_POINT ( 'NONE', #20 ) ;
#92 = CARTESIAN_POINT ( 'NONE',  ( 0.0000000000000000000, 0.0000000000000000000, -2.000000000000000000 ) ) ;
#93 = APPROVAL_STATUS ( 'not_yet_approved' ) ;
#94 = ORGANIZATION ( 'UNSPECIFIED', 'UNSPECIFIED', '' ) ;
#95 = CYLINDRICAL_SURFACE ( 'NONE', #109, 7.500000000000000000 ) ;
#96 = FACE_OUTER_BOUND ( 'NONE', #32, .T. ) ;
#97 = AXIS2_PLACEMENT_3D ( 'NONE', #155, #12, #10 ) ;
#98 = PERSON_AND_ORGANIZATION ( #17, #94 ) ;
#99 = LINE ( 'NONE', #82, #87 ) ;
#100 = APPROVAL_STATUS ( 'not_yet_approved' ) ;
#101 = VERTEX_POINT ( 'NONE', #22 ) ;
#102 = ADVANCED_FACE ( 'NONE', ( #55 ), #131, .T. ) ;
#103 = LOCAL_TIME ( 8, 18, 6.000000000000000000, #134 ) ;
#104 = APPROVAL_PERSON_ORGANIZATION ( #158, #85, #110 ) ;
#105 = ORIENTED_EDGE ( 'NONE', *, *, #53, .T. ) ;
#106 = DIRECTION ( 'NONE',  ( 0.0000000000000000000, 0.0000000000000000000, 1.000000000000000000 ) ) ;
#107 = DIRECTION ( 'NONE',  ( 0.0000000000000000000, 0.0000000000000000000, 1.000000000000000000 ) ) ;
#108 = DIRECTION ( 'NONE',  ( 0.0000000000000000000, 0.0000000000000000000, 1.000000000000000000 ) ) ;
#109 = AXIS2_PLACEMENT_3D ( 'NONE', #47, #33, #153 ) ;
#110 = APPROVAL_ROLE ( '' ) ;
#111 = PERSON_AND_ORGANIZATION ( #17, #94 ) ;
#112 = DATE_AND_TIME ( #38, #147 ) ;
#113 = SECURITY_CLASSIFICATION ( '', '', #75 ) ;
#114 = DESIGN_CONTEXT ( 'detailed design', #151, 'design' ) ;
#115 = EDGE_CURVE ( 'NONE', #78, #101, #69, .T. ) ;
#116 = ADVANCED_FACE ( 'NONE', ( #89 ), #137, .F. ) ;
#117 = CC_DESIGN_PERSON_AND_ORGANIZATION_ASSIGNMENT ( #111, #81, ( #118 ) ) ;
#118 = PRODUCT ( 'Web Model 84463_13334', 'Web Model 84463_13334', '', ( #138 ) ) ;
#119 = DIRECTION ( 'NONE',  ( 0.0000000000000000000, 0.0000000000000000000, 1.000000000000000000 ) ) ;
#120 = DIRECTION ( 'NONE',  ( 1.000000000000000000, 0.0000000000000000000, 0.0000000000000000000 ) ) ;
#121 =( GEOMETRIC_REPRESENTATION_CONTEXT ( 3 ) GLOBAL_UNCERTAINTY_ASSIGNED_CONTEXT ( ( #150 ) ) GLOBAL_UNIT_ASSIGNED_CONTEXT ( ( #139, #74, #167 ) ) REPRESENTATION_CONTEXT ( 'NONE', 'WORKASPACE' ) );
#122 = DIRECTION ( 'NONE',  ( 1.000000000000000000, 0.0000000000000000000, 0.0000000000000000000 ) ) ;
#123 = DIRECTION ( 'NONE',  ( 0.0000000000000000000, 0.0000000000000000000, 1.000000000000000000 ) ) ;
#124 = CARTESIAN_POINT ( 'NONE',  ( -7.500000000000000000, 9.184850993605147944E-16, -2.000000000000000000 ) ) ;
#125 = PERSON_AND_ORGANIZATION_ROLE ( 'creator' ) ;
#126 = DATE_TIME_ROLE ( 'classification_date' ) ;
#127 = FACE_OUTER_BOUND ( 'NONE', #175, .T. ) ;
#128 = APPROVAL ( #93, 'UNSPECIFIED' ) ;
#129 = LOCAL_TIME ( 8, 18, 6.000000000000000000, #76 ) ;
#130 = ADVANCED_FACE ( 'NONE', ( #127 ), #95, .T. ) ;
#131 = CYLINDRICAL_SURFACE ( 'NONE', #16, 7.500000000000000000 ) ;
#132 = ORIENTED_EDGE ( 'NONE', *, *, #53, .F. ) ;
#133 = PRODUCT_DEFINITION ( 'UNKNOWN', '', #44, #114 ) ;
#134 = COORDINATED_UNIVERSAL_TIME_OFFSET ( 5, 0, .BEHIND. ) ;
#135 = ORIENTED_EDGE ( 'NONE', *, *, #115, .T. ) ;
#136 = DATE_TIME_ROLE ( 'creation_date' ) ;
#137 = PLANE ( 'NONE',  #24 ) ;
#138 = MECHANICAL_CONTEXT ( 'NONE', #90, 'mechanical' ) ;
#139 =( LENGTH_UNIT ( ) NAMED_UNIT ( * ) SI_UNIT ( .MILLI., .METRE. ) );
#140 = APPROVAL ( #100, 'UNSPECIFIED' ) ;
#141 = APPROVAL_ROLE ( '' ) ;
#142 = PERSON_AND_ORGANIZATION ( #17, #94 ) ;
#143 = EDGE_CURVE ( 'NONE', #91, #41, #99, .T. ) ;
#144 = CLOSED_SHELL ( 'NONE', ( #102, #130, #116, #3 ) ) ;
#145 = CC_DESIGN_PERSON_AND_ORGANIZATION_ASSIGNMENT ( #25, #23, ( #133 ) ) ;
#146 = PERSON_AND_ORGANIZATION ( #17, #94 ) ;
#147 = LOCAL_TIME ( 8, 18, 6.000000000000000000, #18 ) ;
#148 = COORDINATED_UNIVERSAL_TIME_OFFSET ( 5, 0, .BEHIND. ) ;
#149 = EDGE_CURVE ( 'NONE', #101, #41, #66, .T. ) ;
#150 = UNCERTAINTY_MEASURE_WITH_UNIT (LENGTH_MEASURE( 1.000000000000000082E-05 ), #139, 'distance_accuracy_value', 'NONE');
#151 = APPLICATION_CONTEXT ( 'configuration controlled 3d designs of mechanical parts and assemblies' ) ;
#152 = CC_DESIGN_DATE_AND_TIME_ASSIGNMENT ( #65, #136, ( #133 ) ) ;
#153 = DIRECTION ( 'NONE',  ( 1.000000000000000000, 0.0000000000000000000, 0.0000000000000000000 ) ) ;
#154 = PLANE ( 'NONE',  #83 ) ;
#155 = CARTESIAN_POINT ( 'NONE',  ( 0.0000000000000000000, 0.0000000000000000000, 0.0000000000000000000 ) ) ;
#156 = LOCAL_TIME ( 8, 18, 6.000000000000000000, #148 ) ;
#157 = APPROVAL_ROLE ( '' ) ;
#158 = PERSON_AND_ORGANIZATION ( #17, #94 ) ;
#159 = AXIS2_PLACEMENT_3D ( 'NONE', #52, #162, #165 ) ;
#160 = APPROVAL_PERSON_ORGANIZATION ( #142, #128, #157 ) ;
#161 = CC_DESIGN_PERSON_AND_ORGANIZATION_ASSIGNMENT ( #13, #169, ( #113 ) ) ;
#162 = DIRECTION ( 'NONE',  ( 0.0000000000000000000, 0.0000000000000000000, 1.000000000000000000 ) ) ;
#163 = DATE_AND_TIME ( #30, #129 ) ;
#164 = CIRCLE ( 'NONE', #11, 7.500000000000000000 ) ;
#165 = DIRECTION ( 'NONE',  ( 1.000000000000000000, 0.0000000000000000000, 0.0000000000000000000 ) ) ;
#166 = CARTESIAN_POINT ( 'NONE',  ( 0.0000000000000000000, 0.0000000000000000000, -2.000000000000000000 ) ) ;
#167 =( NAMED_UNIT ( * ) SI_UNIT ( $, .STERADIAN. ) SOLID_ANGLE_UNIT ( ) );
#168 = AXIS2_PLACEMENT_3D ( 'NONE', #58, #84, #122 ) ;
#169 = PERSON_AND_ORGANIZATION_ROLE ( 'classification_officer' ) ;
#170 = MANIFOLD_SOLID_BREP ( 'Extrude1', #144 ) ;
#171 = APPROVAL_DATE_TIME ( #163, #128 ) ;
#172 = VECTOR ( 'NONE', #108, 1000.000000000000000 ) ;
#173 = ORIENTED_EDGE ( 'NONE', *, *, #149, .T. ) ;
#174 = CC_DESIGN_DATE_AND_TIME_ASSIGNMENT ( #26, #126, ( #113 ) ) ;
#175 = EDGE_LOOP ( 'NONE', ( #28, #105, #70, #64 ) ) ;
ENDSEC;
END-ISO-10303-21;
