ISO-10303-21;
HEADER;
FILE_DESCRIPTION (( 'STEP AP203' ),
    '1' );
FILE_NAME ('87702.STEP',
    '2013-04-03T17:27:39',
    ( '' ),
    ( '' ),
    'SwSTEP 2.0',
    'SolidWorks 2011',
    '' );
FILE_SCHEMA (( 'CONFIG_CONTROL_DESIGN' ));
ENDSEC;

DATA;
#1 = CIRCLE ( 'NONE', #14, 25.00000000000000000 ) ;
#2 = AXIS2_PLACEMENT_3D ( 'NONE', #84, #32, #89 ) ;
#3 = PRODUCT_DEFINITION_FORMATION_WITH_SPECIFIED_SOURCE ( 'ANY', '', #133, .NOT_KNOWN. ) ;
#4 = LOCAL_TIME ( 10, 27, 39.00000000000000000, #82 ) ;
#5 = APPROVAL_PERSON_ORGANIZATION ( #52, #120, #60 ) ;
#6 = AXIS2_PLACEMENT_3D ( 'NONE', #57, #80, #38 ) ;
#7 = APPROVAL_PERSON_ORGANIZATION ( #63, #118, #76 ) ;
#8 = CLOSED_SHELL ( 'NONE', ( #119, #127, #125 ) ) ;
#9 = AXIS2_PLACEMENT_3D ( 'NONE', #87, #26, #64 ) ;
#10 = SECURITY_CLASSIFICATION ( '', '', #92 ) ;
#11 = CC_DESIGN_APPROVAL ( #116, ( #3 ) ) ;
#12 = AXIS2_PLACEMENT_3D ( 'NONE', #104, #44, #91 ) ;
#13 =( GEOMETRIC_REPRESENTATION_CONTEXT ( 3 ) GLOBAL_UNCERTAINTY_ASSIGNED_CONTEXT ( ( #131 ) ) GLOBAL_UNIT_ASSIGNED_CONTEXT ( ( #71, #59, #30 ) ) REPRESENTATION_CONTEXT ( 'NONE', 'WORKASPACE' ) );
#14 = AXIS2_PLACEMENT_3D ( 'NONE', #46, #66, #53 ) ;
#15 = LOCAL_TIME ( 10, 27, 39.00000000000000000, #51 ) ;
#16 = LOCAL_TIME ( 10, 27, 39.00000000000000000, #75 ) ;
#17 = APPROVAL_PERSON_ORGANIZATION ( #67, #116, #43 ) ;
#18 = CC_DESIGN_SECURITY_CLASSIFICATION ( #10, ( #3 ) ) ;
#19 = CC_DESIGN_APPROVAL ( #120, ( #122 ) ) ;
#20 = CIRCLE ( 'NONE', #12, 25.00000000000000000 ) ;
#21 = LOCAL_TIME ( 10, 27, 39.00000000000000000, #108 ) ;
#22 = LOCAL_TIME ( 10, 27, 39.00000000000000000, #77 ) ;
#23 = ORGANIZATION ( 'UNSPECIFIED', 'UNSPECIFIED', '' ) ;
#24 = CC_DESIGN_APPROVAL ( #118, ( #10 ) ) ;
#25 = AXIS2_PLACEMENT_3D ( 'NONE', #35, #105, #78 ) ;
#26 = DIRECTION ( 'NONE',  ( -0.0000000000000000000, -0.0000000000000000000, 1.000000000000000000 ) ) ;
#27 = ORIENTED_EDGE ( 'NONE', *, *, #128, .F. ) ;
#28 = PERSON_AND_ORGANIZATION_ROLE ( 'design_owner' ) ;
#29 = ORIENTED_EDGE ( 'NONE', *, *, #121, .F. ) ;
#30 =( NAMED_UNIT ( * ) SI_UNIT ( $, .STERADIAN. ) SOLID_ANGLE_UNIT ( ) );
#31 = FACE_OUTER_BOUND ( 'NONE', #33, .T. ) ;
#32 = DIRECTION ( 'NONE',  ( 0.0000000000000000000, -0.0000000000000000000, 1.000000000000000000 ) ) ;
#33 = EDGE_LOOP ( 'NONE', ( #29 ) ) ;
#34 = CALENDAR_DATE ( 2013, 3, 4 ) ;
#35 = CARTESIAN_POINT ( 'NONE',  ( 0.0000000000000000000, 0.0000000000000000000, 0.0000000000000000000 ) ) ;
#36 = APPROVAL_STATUS ( 'not_yet_approved' ) ;
#37 = PERSON_AND_ORGANIZATION ( #111, #23 ) ;
#38 = DIRECTION ( 'NONE',  ( -1.000000000000000000, 0.0000000000000000000, -0.0000000000000000000 ) ) ;
#39 = VERTEX_POINT ( 'NONE', #86 ) ;
#40 = PLANE ( 'NONE',  #2 ) ;
#41 = APPLICATION_PROTOCOL_DEFINITION ( 'international standard', 'config_control_design', 1994, #134 ) ;
#42 = EDGE_LOOP ( 'NONE', ( #49 ) ) ;
#43 = APPROVAL_ROLE ( '' ) ;
#44 = DIRECTION ( 'NONE',  ( -0.0000000000000000000, -0.0000000000000000000, 1.000000000000000000 ) ) ;
#45 = APPROVAL_DATE_TIME ( #109, #120 ) ;
#46 = CARTESIAN_POINT ( 'NONE',  ( 0.0000000000000000000, 0.0000000000000000000, -3.000000000000000000 ) ) ;
#47 = APPLICATION_PROTOCOL_DEFINITION ( 'international standard', 'config_control_design', 1994, #135 ) ;
#48 = DATE_AND_TIME ( #62, #4 ) ;
#49 = ORIENTED_EDGE ( 'NONE', *, *, #128, .T. ) ;
#50 = APPROVAL_STATUS ( 'not_yet_approved' ) ;
#51 = COORDINATED_UNIVERSAL_TIME_OFFSET ( 7, 0, .BEHIND. ) ;
#52 = PERSON_AND_ORGANIZATION ( #111, #23 ) ;
#53 = DIRECTION ( 'NONE',  ( 1.000000000000000000, 0.0000000000000000000, 0.0000000000000000000 ) ) ;
#54 = MECHANICAL_CONTEXT ( 'NONE', #134, 'mechanical' ) ;
#55 = APPROVAL_STATUS ( 'not_yet_approved' ) ;
#56 = PERSON_AND_ORGANIZATION_ROLE ( 'creator' ) ;
#57 = CARTESIAN_POINT ( 'NONE',  ( 0.0000000000000000000, 0.0000000000000000000, 0.0000000000000000000 ) ) ;
#58 = EDGE_LOOP ( 'NONE', ( #81 ) ) ;
#59 =( NAMED_UNIT ( * ) PLANE_ANGLE_UNIT ( ) SI_UNIT ( $, .RADIAN. ) );
#60 = APPROVAL_ROLE ( '' ) ;
#61 = PERSON_AND_ORGANIZATION_ROLE ( 'classification_officer' ) ;
#62 = CALENDAR_DATE ( 2013, 3, 4 ) ;
#63 = PERSON_AND_ORGANIZATION ( #111, #23 ) ;
#64 = DIRECTION ( 'NONE',  ( 1.000000000000000000, 0.0000000000000000000, 0.0000000000000000000 ) ) ;
#65 = CALENDAR_DATE ( 2013, 3, 4 ) ;
#66 = DIRECTION ( 'NONE',  ( -0.0000000000000000000, -0.0000000000000000000, 1.000000000000000000 ) ) ;
#67 = PERSON_AND_ORGANIZATION ( #111, #23 ) ;
#68 = DATE_TIME_ROLE ( 'creation_date' ) ;
#69 = CALENDAR_DATE ( 2013, 3, 4 ) ;
#70 = PLANE ( 'NONE',  #6 ) ;
#71 =( LENGTH_UNIT ( ) NAMED_UNIT ( * ) SI_UNIT ( .MILLI., .METRE. ) );
#72 = APPROVAL_DATE_TIME ( #73, #118 ) ;
#73 = DATE_AND_TIME ( #74, #16 ) ;
#74 = CALENDAR_DATE ( 2013, 3, 4 ) ;
#75 = COORDINATED_UNIVERSAL_TIME_OFFSET ( 7, 0, .BEHIND. ) ;
#76 = APPROVAL_ROLE ( '' ) ;
#77 = COORDINATED_UNIVERSAL_TIME_OFFSET ( 7, 0, .BEHIND. ) ;
#78 = DIRECTION ( 'NONE',  ( 1.000000000000000000, 0.0000000000000000000, 0.0000000000000000000 ) ) ;
#79 = FACE_OUTER_BOUND ( 'NONE', #42, .T. ) ;
#80 = DIRECTION ( 'NONE',  ( 0.0000000000000000000, 0.0000000000000000000, -1.000000000000000000 ) ) ;
#81 = ORIENTED_EDGE ( 'NONE', *, *, #121, .T. ) ;
#82 = COORDINATED_UNIVERSAL_TIME_OFFSET ( 7, 0, .BEHIND. ) ;
#83 = PERSON_AND_ORGANIZATION ( #111, #23 ) ;
#84 = CARTESIAN_POINT ( 'NONE',  ( 0.0000000000000000000, 0.0000000000000000000, -3.000000000000000000 ) ) ;
#85 = PERSON_AND_ORGANIZATION_ROLE ( 'creator' ) ;
#86 = CARTESIAN_POINT ( 'NONE',  ( 25.00000000000000000, 0.0000000000000000000, 0.0000000000000000000 ) ) ;
#87 = CARTESIAN_POINT ( 'NONE',  ( 0.0000000000000000000, 0.0000000000000000000, 0.0000000000000000000 ) ) ;
#88 = DATE_AND_TIME ( #34, #15 ) ;
#89 = DIRECTION ( 'NONE',  ( 1.000000000000000000, 0.0000000000000000000, 0.0000000000000000000 ) ) ;
#90 = CYLINDRICAL_SURFACE ( 'NONE', #9, 25.00000000000000000 ) ;
#91 = DIRECTION ( 'NONE',  ( 1.000000000000000000, 0.0000000000000000000, 0.0000000000000000000 ) ) ;
#92 = SECURITY_CLASSIFICATION_LEVEL ( 'unclassified' ) ;
#93 = PERSON_AND_ORGANIZATION ( #111, #23 ) ;
#94 = PERSON_AND_ORGANIZATION_ROLE ( 'design_supplier' ) ;
#95 = PERSON_AND_ORGANIZATION ( #111, #23 ) ;
#96 = FACE_OUTER_BOUND ( 'NONE', #58, .T. ) ;
#97 = VERTEX_POINT ( 'NONE', #99 ) ;
#98 = FACE_OUTER_BOUND ( 'NONE', #106, .T. ) ;
#99 = CARTESIAN_POINT ( 'NONE',  ( 25.00000000000000000, 0.0000000000000000000, -3.000000000000000000 ) ) ;
#100 = DATE_AND_TIME ( #69, #21 ) ;
#101 = SHAPE_DEFINITION_REPRESENTATION ( #132, #110 ) ;
#102 = APPROVAL_DATE_TIME ( #88, #116 ) ;
#103 = DATE_TIME_ROLE ( 'classification_date' ) ;
#104 = CARTESIAN_POINT ( 'NONE',  ( 0.0000000000000000000, 0.0000000000000000000, 0.0000000000000000000 ) ) ;
#105 = DIRECTION ( 'NONE',  ( 0.0000000000000000000, 0.0000000000000000000, 1.000000000000000000 ) ) ;
#106 = EDGE_LOOP ( 'NONE', ( #27 ) ) ;
#107 = PERSON_AND_ORGANIZATION ( #111, #23 ) ;
#108 = COORDINATED_UNIVERSAL_TIME_OFFSET ( 7, 0, .BEHIND. ) ;
#109 = DATE_AND_TIME ( #65, #22 ) ;
#110 = ADVANCED_BREP_SHAPE_REPRESENTATION ( '87702', ( #129, #25 ), #13 ) ;
#111 = PERSON ( 'UNSPECIFIED', 'UNSPECIFIED', 'UNSPECIFIED', ('UNSPECIFIED'), ('UNSPECIFIED'), ('UNSPECIFIED') ) ;
#112 = CC_DESIGN_PERSON_AND_ORGANIZATION_ASSIGNMENT ( #95, #94, ( #3 ) ) ;
#113 = CC_DESIGN_PERSON_AND_ORGANIZATION_ASSIGNMENT ( #107, #56, ( #122 ) ) ;
#114 = CC_DESIGN_DATE_AND_TIME_ASSIGNMENT ( #100, #68, ( #122 ) ) ;
#115 = CC_DESIGN_PERSON_AND_ORGANIZATION_ASSIGNMENT ( #83, #85, ( #3 ) ) ;
#116 = APPROVAL ( #36, 'UNSPECIFIED' ) ;
#117 = PRODUCT_RELATED_PRODUCT_CATEGORY ( 'detail', '', ( #133 ) ) ;
#118 = APPROVAL ( #55, 'UNSPECIFIED' ) ;
#119 = ADVANCED_FACE ( 'NONE', ( #96 ), #70, .F. ) ;
#120 = APPROVAL ( #50, 'UNSPECIFIED' ) ;
#121 = EDGE_CURVE ( 'NONE', #39, #39, #20, .T. ) ;
#122 = PRODUCT_DEFINITION ( 'UNKNOWN', '', #3, #130 ) ;
#123 = CC_DESIGN_PERSON_AND_ORGANIZATION_ASSIGNMENT ( #93, #61, ( #10 ) ) ;
#124 = CC_DESIGN_DATE_AND_TIME_ASSIGNMENT ( #48, #103, ( #10 ) ) ;
#125 = ADVANCED_FACE ( 'NONE', ( #98 ), #40, .F. ) ;
#126 = CC_DESIGN_PERSON_AND_ORGANIZATION_ASSIGNMENT ( #37, #28, ( #133 ) ) ;
#127 = ADVANCED_FACE ( 'NONE', ( #31, #79 ), #90, .T. ) ;
#128 = EDGE_CURVE ( 'NONE', #97, #97, #1, .T. ) ;
#129 = MANIFOLD_SOLID_BREP ( 'Revolve1', #8 ) ;
#130 = DESIGN_CONTEXT ( 'detailed design', #135, 'design' ) ;
#131 = UNCERTAINTY_MEASURE_WITH_UNIT (LENGTH_MEASURE( 1.000000000000000100E-005 ), #71, 'distance_accuracy_value', 'NONE');
#132 = PRODUCT_DEFINITION_SHAPE ( 'NONE', 'NONE',  #122 ) ;
#133 = PRODUCT ( '87702', '87702', '', ( #54 ) ) ;
#134 = APPLICATION_CONTEXT ( 'configuration controlled 3d designs of mechanical parts and assemblies' ) ;
#135 = APPLICATION_CONTEXT ( 'configuration controlled 3d designs of mechanical parts and assemblies' ) ;
ENDSEC;
END-ISO-10303-21;
