ISO-10303-21;
HEADER;
FILE_DESCRIPTION (( 'STEP AP203' ),
    '1' );
FILE_NAME ('Web Model 43367_43367.step',
    '2020-10-21T18:21:32',
    ( '' ),
    ( '' ),
    'SwSTEP 2.0',
    'SolidWorks 2018',
    '' );
FILE_SCHEMA (( 'CONFIG_CONTROL_DESIGN' ));
ENDSEC;

DATA;
#1 = PERSON_AND_ORGANIZATION ( #16, #129 ) ;
#2 = DIRECTION ( 'NONE',  ( -1.000000000000000000, 0.0000000000000000000, 0.0000000000000000000 ) ) ;
#3 = DIRECTION ( 'NONE',  ( -0.0000000000000000000, -0.0000000000000000000, -1.000000000000000000 ) ) ;
#4 = EDGE_LOOP ( 'NONE', ( #8, #29 ) ) ;
#5 = PRODUCT_DEFINITION ( 'UNKNOWN', '', #14, #85 ) ;
#6 = ORIENTED_EDGE ( 'NONE', *, *, #42, .T. ) ;
#7 = EDGE_CURVE ( 'NONE', #39, #153, #167, .T. ) ;
#8 = ORIENTED_EDGE ( 'NONE', *, *, #42, .F. ) ;
#9 = DIRECTION ( 'NONE',  ( 0.0000000000000000000, 0.0000000000000000000, 1.000000000000000000 ) ) ;
#10 = SECURITY_CLASSIFICATION ( '', '', #131 ) ;
#11 = SHAPE_DEFINITION_REPRESENTATION ( #51, #32 ) ;
#12 = APPROVAL_DATE_TIME ( #41, #72 ) ;
#13 = MECHANICAL_CONTEXT ( 'NONE', #108, 'mechanical' ) ;
#14 = PRODUCT_DEFINITION_FORMATION_WITH_SPECIFIED_SOURCE ( 'ANY', '', #162, .NOT_KNOWN. ) ;
#15 = DIRECTION ( 'NONE',  ( -0.0000000000000000000, -0.0000000000000000000, -1.000000000000000000 ) ) ;
#16 = PERSON ( 'UNSPECIFIED', 'UNSPECIFIED', 'UNSPECIFIED', ('UNSPECIFIED'), ('UNSPECIFIED'), ('UNSPECIFIED') ) ;
#17 = DATE_AND_TIME ( #156, #88 ) ;
#18 = DIRECTION ( 'NONE',  ( 1.000000000000000000, 0.0000000000000000000, 0.0000000000000000000 ) ) ;
#19 = EDGE_CURVE ( 'NONE', #102, #135, #92, .T. ) ;
#20 = APPROVAL_PERSON_ORGANIZATION ( #86, #139, #133 ) ;
#21 = CARTESIAN_POINT ( 'NONE',  ( 0.0000000000000000000, 0.0000000000000000000, 2.000000000000000000 ) ) ;
#22 = CALENDAR_DATE ( 2020, 21, 10 ) ;
#23 = DATE_TIME_ROLE ( 'classification_date' ) ;
#24 = CC_DESIGN_SECURITY_CLASSIFICATION ( #10, ( #14 ) ) ;
#25 = APPLICATION_PROTOCOL_DEFINITION ( 'international standard', 'config_control_design', 1994, #36 ) ;
#26 = DIRECTION ( 'NONE',  ( -1.000000000000000000, 0.0000000000000000000, 0.0000000000000000000 ) ) ;
#27 = DATE_AND_TIME ( #22, #68 ) ;
#28 = ORIENTED_EDGE ( 'NONE', *, *, #170, .F. ) ;
#29 = ORIENTED_EDGE ( 'NONE', *, *, #7, .F. ) ;
#30 = CC_DESIGN_PERSON_AND_ORGANIZATION_ASSIGNMENT ( #40, #116, ( #14 ) ) ;
#31 = AXIS2_PLACEMENT_3D ( 'NONE', #81, #3, #2 ) ;
#32 = ADVANCED_BREP_SHAPE_REPRESENTATION ( 'Web Model 43367_43367', ( #117, #150 ), #110 ) ;
#33 = LOCAL_TIME ( 14, 21, 32.00000000000000000, #63 ) ;
#34 = ORIENTED_EDGE ( 'NONE', *, *, #52, .F. ) ;
#35 = CARTESIAN_POINT ( 'NONE',  ( -7.500000000000000000, 0.0000000000000000000, 0.0000000000000000000 ) ) ;
#36 = APPLICATION_CONTEXT ( 'configuration controlled 3d designs of mechanical parts and assemblies' ) ;
#37 = AXIS2_PLACEMENT_3D ( 'NONE', #143, #89, #125 ) ;
#38 = PERSON_AND_ORGANIZATION ( #16, #129 ) ;
#39 = VERTEX_POINT ( 'NONE', #142 ) ;
#40 = PERSON_AND_ORGANIZATION ( #16, #129 ) ;
#41 = DATE_AND_TIME ( #159, #94 ) ;
#42 = EDGE_CURVE ( 'NONE', #153, #39, #172, .T. ) ;
#43 = DIRECTION ( 'NONE',  ( 0.0000000000000000000, 0.0000000000000000000, 1.000000000000000000 ) ) ;
#44 = CC_DESIGN_APPROVAL ( #154, ( #10 ) ) ;
#45 = COORDINATED_UNIVERSAL_TIME_OFFSET ( 5, 0, .BEHIND. ) ;
#46 = DIRECTION ( 'NONE',  ( 1.000000000000000000, 0.0000000000000000000, 0.0000000000000000000 ) ) ;
#47 = CC_DESIGN_PERSON_AND_ORGANIZATION_ASSIGNMENT ( #98, #80, ( #162 ) ) ;
#48 = CYLINDRICAL_SURFACE ( 'NONE', #166, 7.500000000000000000 ) ;
#49 = APPROVAL_DATE_TIME ( #17, #154 ) ;
#50 = DIRECTION ( 'NONE',  ( 0.0000000000000000000, 0.0000000000000000000, 1.000000000000000000 ) ) ;
#51 = PRODUCT_DEFINITION_SHAPE ( 'NONE', 'NONE',  #5 ) ;
#52 = EDGE_CURVE ( 'NONE', #135, #102, #60, .T. ) ;
#53 = PERSON_AND_ORGANIZATION ( #16, #129 ) ;
#54 = DIRECTION ( 'NONE',  ( 1.000000000000000000, 0.0000000000000000000, -0.0000000000000000000 ) ) ;
#55 = CYLINDRICAL_SURFACE ( 'NONE', #31, 7.500000000000000000 ) ;
#56 = DATE_AND_TIME ( #71, #114 ) ;
#57 = AXIS2_PLACEMENT_3D ( 'NONE', #128, #62, #46 ) ;
#58 = LINE ( 'NONE', #144, #140 ) ;
#59 = PERSON_AND_ORGANIZATION ( #16, #129 ) ;
#60 = CIRCLE ( 'NONE', #134, 7.500000000000000000 ) ;
#61 = DIRECTION ( 'NONE',  ( 0.0000000000000000000, 0.0000000000000000000, 1.000000000000000000 ) ) ;
#62 = DIRECTION ( 'NONE',  ( 0.0000000000000000000, 0.0000000000000000000, 1.000000000000000000 ) ) ;
#63 = COORDINATED_UNIVERSAL_TIME_OFFSET ( 5, 0, .BEHIND. ) ;
#64 = DIRECTION ( 'NONE',  ( 1.000000000000000000, 0.0000000000000000000, 0.0000000000000000000 ) ) ;
#65 = CARTESIAN_POINT ( 'NONE',  ( 0.0000000000000000000, 0.0000000000000000000, 0.0000000000000000000 ) ) ;
#66 = PERSON_AND_ORGANIZATION_ROLE ( 'classification_officer' ) ;
#67 = APPLICATION_PROTOCOL_DEFINITION ( 'international standard', 'config_control_design', 1994, #108 ) ;
#68 = LOCAL_TIME ( 14, 21, 32.00000000000000000, #82 ) ;
#69 = CLOSED_SHELL ( 'NONE', ( #95, #104, #90, #77 ) ) ;
#70 = APPROVAL_PERSON_ORGANIZATION ( #1, #72, #119 ) ;
#71 = CALENDAR_DATE ( 2020, 21, 10 ) ;
#72 = APPROVAL ( #132, 'UNSPECIFIED' ) ;
#73 = DIRECTION ( 'NONE',  ( -0.0000000000000000000, -0.0000000000000000000, -1.000000000000000000 ) ) ;
#74 = LINE ( 'NONE', #163, #124 ) ;
#75 = DIRECTION ( 'NONE',  ( 1.000000000000000000, 0.0000000000000000000, 0.0000000000000000000 ) ) ;
#76 = DIRECTION ( 'NONE',  ( 0.0000000000000000000, 0.0000000000000000000, 1.000000000000000000 ) ) ;
#77 = ADVANCED_FACE ( 'NONE', ( #121 ), #175, .F. ) ;
#78 = DATE_AND_TIME ( #137, #33 ) ;
#79 = CARTESIAN_POINT ( 'NONE',  ( -7.500000000000000000, 0.0000000000000000000, 2.000000000000000000 ) ) ;
#80 = PERSON_AND_ORGANIZATION_ROLE ( 'design_owner' ) ;
#81 = CARTESIAN_POINT ( 'NONE',  ( 0.0000000000000000000, 0.0000000000000000000, 2.000000000000000000 ) ) ;
#82 = COORDINATED_UNIVERSAL_TIME_OFFSET ( 5, 0, .BEHIND. ) ;
#83 = APPROVAL_DATE_TIME ( #78, #139 ) ;
#84 = CC_DESIGN_APPROVAL ( #72, ( #5 ) ) ;
#85 = DESIGN_CONTEXT ( 'detailed design', #36, 'design' ) ;
#86 = PERSON_AND_ORGANIZATION ( #16, #129 ) ;
#87 = UNCERTAINTY_MEASURE_WITH_UNIT (LENGTH_MEASURE( 1.000000000000000082E-05 ), #109, 'distance_accuracy_value', 'NONE');
#88 = LOCAL_TIME ( 14, 21, 32.00000000000000000, #45 ) ;
#89 = DIRECTION ( 'NONE',  ( 0.0000000000000000000, 0.0000000000000000000, 1.000000000000000000 ) ) ;
#90 = ADVANCED_FACE ( 'NONE', ( #169 ), #173, .T. ) ;
#91 = CC_DESIGN_DATE_AND_TIME_ASSIGNMENT ( #27, #23, ( #10 ) ) ;
#92 = CIRCLE ( 'NONE', #99, 7.500000000000000000 ) ;
#93 = CARTESIAN_POINT ( 'NONE',  ( 0.0000000000000000000, 0.0000000000000000000, 0.0000000000000000000 ) ) ;
#94 = LOCAL_TIME ( 14, 21, 32.00000000000000000, #174 ) ;
#95 = ADVANCED_FACE ( 'NONE', ( #105 ), #55, .T. ) ;
#96 = APPROVAL_ROLE ( '' ) ;
#97 = EDGE_LOOP ( 'NONE', ( #130, #171, #157, #145 ) ) ;
#98 = PERSON_AND_ORGANIZATION ( #16, #129 ) ;
#99 = AXIS2_PLACEMENT_3D ( 'NONE', #103, #76, #75 ) ;
#100 = FACE_OUTER_BOUND ( 'NONE', #148, .T. ) ;
#101 = CC_DESIGN_APPROVAL ( #139, ( #14 ) ) ;
#102 = VERTEX_POINT ( 'NONE', #146 ) ;
#103 = CARTESIAN_POINT ( 'NONE',  ( 0.0000000000000000000, 0.0000000000000000000, 2.000000000000000000 ) ) ;
#104 = ADVANCED_FACE ( 'NONE', ( #100 ), #48, .T. ) ;
#105 = FACE_OUTER_BOUND ( 'NONE', #97, .T. ) ;
#106 = PERSON_AND_ORGANIZATION ( #16, #129 ) ;
#107 = AXIS2_PLACEMENT_3D ( 'NONE', #93, #43, #126 ) ;
#108 = APPLICATION_CONTEXT ( 'configuration controlled 3d designs of mechanical parts and assemblies' ) ;
#109 =( LENGTH_UNIT ( ) NAMED_UNIT ( * ) SI_UNIT ( .MILLI., .METRE. ) );
#110 =( GEOMETRIC_REPRESENTATION_CONTEXT ( 3 ) GLOBAL_UNCERTAINTY_ASSIGNED_CONTEXT ( ( #87 ) ) GLOBAL_UNIT_ASSIGNED_CONTEXT ( ( #109, #161, #118 ) ) REPRESENTATION_CONTEXT ( 'NONE', 'WORKASPACE' ) );
#111 = EDGE_LOOP ( 'NONE', ( #136, #141 ) ) ;
#112 = AXIS2_PLACEMENT_3D ( 'NONE', #155, #9, #54 ) ;
#113 = CC_DESIGN_PERSON_AND_ORGANIZATION_ASSIGNMENT ( #38, #165, ( #5 ) ) ;
#114 = LOCAL_TIME ( 14, 21, 32.00000000000000000, #152 ) ;
#115 = CC_DESIGN_DATE_AND_TIME_ASSIGNMENT ( #56, #147, ( #5 ) ) ;
#116 = PERSON_AND_ORGANIZATION_ROLE ( 'creator' ) ;
#117 = MANIFOLD_SOLID_BREP ( 'Boss-Extrude1', #69 ) ;
#118 =( NAMED_UNIT ( * ) SI_UNIT ( $, .STERADIAN. ) SOLID_ANGLE_UNIT ( ) );
#119 = APPROVAL_ROLE ( '' ) ;
#120 = APPROVAL_STATUS ( 'not_yet_approved' ) ;
#121 = FACE_OUTER_BOUND ( 'NONE', #4, .T. ) ;
#122 = CC_DESIGN_PERSON_AND_ORGANIZATION_ASSIGNMENT ( #53, #160, ( #14 ) ) ;
#123 = EDGE_CURVE ( 'NONE', #135, #153, #74, .T. ) ;
#124 = VECTOR ( 'NONE', #15, 1000.000000000000000 ) ;
#125 = DIRECTION ( 'NONE',  ( 1.000000000000000000, 0.0000000000000000000, 0.0000000000000000000 ) ) ;
#126 = DIRECTION ( 'NONE',  ( 1.000000000000000000, 0.0000000000000000000, -0.0000000000000000000 ) ) ;
#127 = PRODUCT_RELATED_PRODUCT_CATEGORY ( 'detail', '', ( #162 ) ) ;
#128 = CARTESIAN_POINT ( 'NONE',  ( 0.0000000000000000000, 0.0000000000000000000, 0.0000000000000000000 ) ) ;
#129 = ORGANIZATION ( 'UNSPECIFIED', 'UNSPECIFIED', '' ) ;
#130 = ORIENTED_EDGE ( 'NONE', *, *, #19, .F. ) ;
#131 = SECURITY_CLASSIFICATION_LEVEL ( 'unclassified' ) ;
#132 = APPROVAL_STATUS ( 'not_yet_approved' ) ;
#133 = APPROVAL_ROLE ( '' ) ;
#134 = AXIS2_PLACEMENT_3D ( 'NONE', #21, #61, #64 ) ;
#135 = VERTEX_POINT ( 'NONE', #79 ) ;
#136 = ORIENTED_EDGE ( 'NONE', *, *, #52, .T. ) ;
#137 = CALENDAR_DATE ( 2020, 21, 10 ) ;
#138 = CARTESIAN_POINT ( 'NONE',  ( 0.0000000000000000000, 0.0000000000000000000, 2.000000000000000000 ) ) ;
#139 = APPROVAL ( #120, 'UNSPECIFIED' ) ;
#140 = VECTOR ( 'NONE', #164, 1000.000000000000000 ) ;
#141 = ORIENTED_EDGE ( 'NONE', *, *, #19, .T. ) ;
#142 = CARTESIAN_POINT ( 'NONE',  ( 7.500000000000000000, 9.184850993605147944E-16, 0.0000000000000000000 ) ) ;
#143 = CARTESIAN_POINT ( 'NONE',  ( 0.0000000000000000000, 0.0000000000000000000, 0.0000000000000000000 ) ) ;
#144 = CARTESIAN_POINT ( 'NONE',  ( 7.500000000000000000, 9.184850993605147944E-16, 2.000000000000000000 ) ) ;
#145 = ORIENTED_EDGE ( 'NONE', *, *, #123, .F. ) ;
#146 = CARTESIAN_POINT ( 'NONE',  ( 7.500000000000000000, 9.184850993605147944E-16, 2.000000000000000000 ) ) ;
#147 = DATE_TIME_ROLE ( 'creation_date' ) ;
#148 = EDGE_LOOP ( 'NONE', ( #28, #34, #168, #6 ) ) ;
#149 = APPROVAL_STATUS ( 'not_yet_approved' ) ;
#150 = AXIS2_PLACEMENT_3D ( 'NONE', #65, #50, #18 ) ;
#151 = CC_DESIGN_PERSON_AND_ORGANIZATION_ASSIGNMENT ( #106, #66, ( #10 ) ) ;
#152 = COORDINATED_UNIVERSAL_TIME_OFFSET ( 5, 0, .BEHIND. ) ;
#153 = VERTEX_POINT ( 'NONE', #35 ) ;
#154 = APPROVAL ( #149, 'UNSPECIFIED' ) ;
#155 = CARTESIAN_POINT ( 'NONE',  ( 0.0000000000000000000, 0.0000000000000000000, 2.000000000000000000 ) ) ;
#156 = CALENDAR_DATE ( 2020, 21, 10 ) ;
#157 = ORIENTED_EDGE ( 'NONE', *, *, #7, .T. ) ;
#158 = APPROVAL_PERSON_ORGANIZATION ( #59, #154, #96 ) ;
#159 = CALENDAR_DATE ( 2020, 21, 10 ) ;
#160 = PERSON_AND_ORGANIZATION_ROLE ( 'design_supplier' ) ;
#161 =( NAMED_UNIT ( * ) PLANE_ANGLE_UNIT ( ) SI_UNIT ( $, .RADIAN. ) );
#162 = PRODUCT ( 'Web Model 43367_43367', 'Web Model 43367_43367', '', ( #13 ) ) ;
#163 = CARTESIAN_POINT ( 'NONE',  ( -7.500000000000000000, 0.0000000000000000000, 2.000000000000000000 ) ) ;
#164 = DIRECTION ( 'NONE',  ( -0.0000000000000000000, -0.0000000000000000000, -1.000000000000000000 ) ) ;
#165 = PERSON_AND_ORGANIZATION_ROLE ( 'creator' ) ;
#166 = AXIS2_PLACEMENT_3D ( 'NONE', #138, #73, #26 ) ;
#167 = CIRCLE ( 'NONE', #57, 7.500000000000000000 ) ;
#168 = ORIENTED_EDGE ( 'NONE', *, *, #123, .T. ) ;
#169 = FACE_OUTER_BOUND ( 'NONE', #111, .T. ) ;
#170 = EDGE_CURVE ( 'NONE', #102, #39, #58, .T. ) ;
#171 = ORIENTED_EDGE ( 'NONE', *, *, #170, .T. ) ;
#172 = CIRCLE ( 'NONE', #37, 7.500000000000000000 ) ;
#173 = PLANE ( 'NONE',  #112 ) ;
#174 = COORDINATED_UNIVERSAL_TIME_OFFSET ( 5, 0, .BEHIND. ) ;
#175 = PLANE ( 'NONE',  #107 ) ;
ENDSEC;
END-ISO-10303-21;
