ISO-10303-21;
HEADER;
FILE_DESCRIPTION (( 'STEP AP203' ),
    '1' );
FILE_NAME ('Web Model 65922.STEP',
    '2017-01-31T19:31:38',
    ( '' ),
    ( '' ),
    'SwSTEP 2.0',
    'SolidWorks 2016',
    '' );
FILE_SCHEMA (( 'CONFIG_CONTROL_DESIGN' ));
ENDSEC;

DATA;
#1 = CARTESIAN_POINT ( 'NONE',  ( 0.0000000000000000000, 0.0000000000000000000, 1.000000000000000000 ) ) ;
#2 = LOCAL_TIME ( 14, 31, 38.00000000000000000, #146 ) ;
#3 = EDGE_LOOP ( 'NONE', ( #122, #22, #166, #51 ) ) ;
#4 = APPROVAL ( #84, 'UNSPECIFIED' ) ;
#5 = EDGE_LOOP ( 'NONE', ( #154, #126 ) ) ;
#6 = CARTESIAN_POINT ( 'NONE',  ( 0.0000000000000000000, 0.0000000000000000000, 1.000000000000000000 ) ) ;
#7 = DIRECTION ( 'NONE',  ( 0.0000000000000000000, 0.0000000000000000000, 1.000000000000000000 ) ) ;
#8 = CIRCLE ( 'NONE', #48, 5.000000000000000900 ) ;
#9 = CARTESIAN_POINT ( 'NONE',  ( 0.0000000000000000000, 0.0000000000000000000, 1.000000000000000000 ) ) ;
#10 = CIRCLE ( 'NONE', #45, 5.000000000000000900 ) ;
#11 = APPROVAL_ROLE ( '' ) ;
#12 = PERSON_AND_ORGANIZATION ( #96, #32 ) ;
#13 = CC_DESIGN_SECURITY_CLASSIFICATION ( #86, ( #174 ) ) ;
#14 = CARTESIAN_POINT ( 'NONE',  ( -5.000000000000000900, 0.0000000000000000000, 1.000000000000000000 ) ) ;
#15 = ORIENTED_EDGE ( 'NONE', *, *, #26, .T. ) ;
#16 = AXIS2_PLACEMENT_3D ( 'NONE', #6, #78, #67 ) ;
#17 = COORDINATED_UNIVERSAL_TIME_OFFSET ( 5, 0, .BEHIND. ) ;
#18 = CIRCLE ( 'NONE', #131, 5.000000000000000900 ) ;
#19 = PRODUCT_RELATED_PRODUCT_CATEGORY ( 'detail', '', ( #33 ) ) ;
#20 = PLANE ( 'NONE',  #90 ) ;
#21 = PERSON_AND_ORGANIZATION ( #96, #32 ) ;
#22 = ORIENTED_EDGE ( 'NONE', *, *, #42, .T. ) ;
#23 = DIRECTION ( 'NONE',  ( 0.0000000000000000000, 0.0000000000000000000, 1.000000000000000000 ) ) ;
#24 = DIRECTION ( 'NONE',  ( 1.000000000000000000, 0.0000000000000000000, 0.0000000000000000000 ) ) ;
#25 = PERSON_AND_ORGANIZATION_ROLE ( 'design_owner' ) ;
#26 = EDGE_CURVE ( 'NONE', #88, #175, #10, .T. ) ;
#27 = CYLINDRICAL_SURFACE ( 'NONE', #144, 5.000000000000000900 ) ;
#28 =( LENGTH_UNIT ( ) NAMED_UNIT ( * ) SI_UNIT ( .MILLI., .METRE. ) );
#29 = SECURITY_CLASSIFICATION_LEVEL ( 'unclassified' ) ;
#30 = PERSON_AND_ORGANIZATION ( #96, #32 ) ;
#31 = DATE_AND_TIME ( #72, #61 ) ;
#32 = ORGANIZATION ( 'UNSPECIFIED', 'UNSPECIFIED', '' ) ;
#33 = PRODUCT ( 'Web Model 65922', 'Web Model 65922', '', ( #39 ) ) ;
#34 = PERSON_AND_ORGANIZATION ( #96, #32 ) ;
#35 = EDGE_CURVE ( 'NONE', #175, #88, #18, .T. ) ;
#36 = ADVANCED_FACE ( 'NONE', ( #156 ), #91, .T. ) ;
#37 = DIRECTION ( 'NONE',  ( 0.0000000000000000000, 0.0000000000000000000, 1.000000000000000000 ) ) ;
#38 = ADVANCED_FACE ( 'NONE', ( #141 ), #52, .T. ) ;
#39 = MECHANICAL_CONTEXT ( 'NONE', #44, 'mechanical' ) ;
#40 = CARTESIAN_POINT ( 'NONE',  ( -5.000000000000000900, 0.0000000000000000000, 1.000000000000000000 ) ) ;
#41 = APPROVAL_STATUS ( 'not_yet_approved' ) ;
#42 = EDGE_CURVE ( 'NONE', #47, #175, #60, .T. ) ;
#43 = DATE_AND_TIME ( #109, #58 ) ;
#44 = APPLICATION_CONTEXT ( 'configuration controlled 3d designs of mechanical parts and assemblies' ) ;
#45 = AXIS2_PLACEMENT_3D ( 'NONE', #140, #23, #50 ) ;
#46 =( GEOMETRIC_REPRESENTATION_CONTEXT ( 3 ) GLOBAL_UNCERTAINTY_ASSIGNED_CONTEXT ( ( #137 ) ) GLOBAL_UNIT_ASSIGNED_CONTEXT ( ( #28, #85, #89 ) ) REPRESENTATION_CONTEXT ( 'NONE', 'WORKASPACE' ) );
#47 = VERTEX_POINT ( 'NONE', #172 ) ;
#48 = AXIS2_PLACEMENT_3D ( 'NONE', #9, #7, #110 ) ;
#49 = EDGE_LOOP ( 'NONE', ( #118, #95, #152, #15 ) ) ;
#50 = DIRECTION ( 'NONE',  ( 1.000000000000000000, 0.0000000000000000000, 0.0000000000000000000 ) ) ;
#51 = ORIENTED_EDGE ( 'NONE', *, *, #134, .F. ) ;
#52 = PLANE ( 'NONE',  #68 ) ;
#53 = DIRECTION ( 'NONE',  ( -0.0000000000000000000, -0.0000000000000000000, -1.000000000000000000 ) ) ;
#54 = CC_DESIGN_PERSON_AND_ORGANIZATION_ASSIGNMENT ( #104, #114, ( #174 ) ) ;
#55 = DIRECTION ( 'NONE',  ( -0.0000000000000000000, -0.0000000000000000000, -1.000000000000000000 ) ) ;
#56 = CC_DESIGN_PERSON_AND_ORGANIZATION_ASSIGNMENT ( #34, #71, ( #86 ) ) ;
#57 = PERSON_AND_ORGANIZATION_ROLE ( 'creator' ) ;
#58 = LOCAL_TIME ( 14, 31, 38.00000000000000000, #107 ) ;
#59 = DATE_AND_TIME ( #94, #2 ) ;
#60 = LINE ( 'NONE', #66, #159 ) ;
#61 = LOCAL_TIME ( 14, 31, 38.00000000000000000, #158 ) ;
#62 = PRODUCT_DEFINITION_SHAPE ( 'NONE', 'NONE',  #100 ) ;
#63 = SHAPE_DEFINITION_REPRESENTATION ( #62, #157 ) ;
#64 = CC_DESIGN_DATE_AND_TIME_ASSIGNMENT ( #43, #127, ( #86 ) ) ;
#65 = DIRECTION ( 'NONE',  ( 0.0000000000000000000, 0.0000000000000000000, 1.000000000000000000 ) ) ;
#66 = CARTESIAN_POINT ( 'NONE',  ( 5.000000000000000900, 6.123233995736767300E-016, 1.000000000000000000 ) ) ;
#67 = DIRECTION ( 'NONE',  ( -1.000000000000000000, 0.0000000000000000000, 0.0000000000000000000 ) ) ;
#68 = AXIS2_PLACEMENT_3D ( 'NONE', #138, #65, #161 ) ;
#69 = DIRECTION ( 'NONE',  ( -1.000000000000000000, 0.0000000000000000000, 0.0000000000000000000 ) ) ;
#70 = DIRECTION ( 'NONE',  ( 0.0000000000000000000, 0.0000000000000000000, 1.000000000000000000 ) ) ;
#71 = PERSON_AND_ORGANIZATION_ROLE ( 'classification_officer' ) ;
#72 = CALENDAR_DATE ( 2017, 31, 1 ) ;
#73 = APPLICATION_CONTEXT ( 'configuration controlled 3d designs of mechanical parts and assemblies' ) ;
#74 = CALENDAR_DATE ( 2017, 31, 1 ) ;
#75 = EDGE_CURVE ( 'NONE', #47, #162, #8, .T. ) ;
#76 = DATE_AND_TIME ( #99, #165 ) ;
#77 = DIRECTION ( 'NONE',  ( 1.000000000000000000, 0.0000000000000000000, 0.0000000000000000000 ) ) ;
#78 = DIRECTION ( 'NONE',  ( -0.0000000000000000000, -0.0000000000000000000, -1.000000000000000000 ) ) ;
#79 = AXIS2_PLACEMENT_3D ( 'NONE', #1, #128, #24 ) ;
#80 = CARTESIAN_POINT ( 'NONE',  ( 0.0000000000000000000, 0.0000000000000000000, 1.000000000000000000 ) ) ;
#81 = APPROVAL_ROLE ( '' ) ;
#82 = PERSON_AND_ORGANIZATION ( #96, #32 ) ;
#83 = CLOSED_SHELL ( 'NONE', ( #36, #112, #38, #101 ) ) ;
#84 = APPROVAL_STATUS ( 'not_yet_approved' ) ;
#85 =( NAMED_UNIT ( * ) PLANE_ANGLE_UNIT ( ) SI_UNIT ( $, .RADIAN. ) );
#86 = SECURITY_CLASSIFICATION ( '', '', #29 ) ;
#87 = DATE_TIME_ROLE ( 'creation_date' ) ;
#88 = VERTEX_POINT ( 'NONE', #124 ) ;
#89 =( NAMED_UNIT ( * ) SI_UNIT ( $, .STERADIAN. ) SOLID_ANGLE_UNIT ( ) );
#90 = AXIS2_PLACEMENT_3D ( 'NONE', #149, #37, #111 ) ;
#91 = CYLINDRICAL_SURFACE ( 'NONE', #16, 5.000000000000000900 ) ;
#92 = MANIFOLD_SOLID_BREP ( 'Extrude1', #83 ) ;
#93 = CC_DESIGN_PERSON_AND_ORGANIZATION_ASSIGNMENT ( #21, #57, ( #100 ) ) ;
#94 = CALENDAR_DATE ( 2017, 31, 1 ) ;
#95 = ORIENTED_EDGE ( 'NONE', *, *, #147, .F. ) ;
#96 = PERSON ( 'UNSPECIFIED', 'UNSPECIFIED', 'UNSPECIFIED', ('UNSPECIFIED'), ('UNSPECIFIED'), ('UNSPECIFIED') ) ;
#97 = APPROVAL ( #41, 'UNSPECIFIED' ) ;
#98 = EDGE_LOOP ( 'NONE', ( #145, #169 ) ) ;
#99 = CALENDAR_DATE ( 2017, 31, 1 ) ;
#100 = PRODUCT_DEFINITION ( 'UNKNOWN', '', #174, #119 ) ;
#101 = ADVANCED_FACE ( 'NONE', ( #117 ), #20, .F. ) ;
#102 = CARTESIAN_POINT ( 'NONE',  ( 0.0000000000000000000, 0.0000000000000000000, 0.0000000000000000000 ) ) ;
#103 = APPROVAL_ROLE ( '' ) ;
#104 = PERSON_AND_ORGANIZATION ( #96, #32 ) ;
#105 = DATE_AND_TIME ( #74, #168 ) ;
#106 = CC_DESIGN_APPROVAL ( #97, ( #86 ) ) ;
#107 = COORDINATED_UNIVERSAL_TIME_OFFSET ( 5, 0, .BEHIND. ) ;
#108 = APPROVAL ( #125, 'UNSPECIFIED' ) ;
#109 = CALENDAR_DATE ( 2017, 31, 1 ) ;
#110 = DIRECTION ( 'NONE',  ( 1.000000000000000000, 0.0000000000000000000, 0.0000000000000000000 ) ) ;
#111 = DIRECTION ( 'NONE',  ( 1.000000000000000000, 0.0000000000000000000, -0.0000000000000000000 ) ) ;
#112 = ADVANCED_FACE ( 'NONE', ( #129 ), #27, .T. ) ;
#113 = CC_DESIGN_PERSON_AND_ORGANIZATION_ASSIGNMENT ( #30, #151, ( #174 ) ) ;
#114 = PERSON_AND_ORGANIZATION_ROLE ( 'creator' ) ;
#115 = APPROVAL_DATE_TIME ( #31, #108 ) ;
#116 = LINE ( 'NONE', #40, #133 ) ;
#117 = FACE_OUTER_BOUND ( 'NONE', #5, .T. ) ;
#118 = ORIENTED_EDGE ( 'NONE', *, *, #42, .F. ) ;
#119 = DESIGN_CONTEXT ( 'detailed design', #73, 'design' ) ;
#120 = CC_DESIGN_APPROVAL ( #4, ( #174 ) ) ;
#121 = DIRECTION ( 'NONE',  ( -0.0000000000000000000, -0.0000000000000000000, -1.000000000000000000 ) ) ;
#122 = ORIENTED_EDGE ( 'NONE', *, *, #75, .F. ) ;
#123 = CARTESIAN_POINT ( 'NONE',  ( 0.0000000000000000000, 0.0000000000000000000, 0.0000000000000000000 ) ) ;
#124 = CARTESIAN_POINT ( 'NONE',  ( -5.000000000000000900, 0.0000000000000000000, 0.0000000000000000000 ) ) ;
#125 = APPROVAL_STATUS ( 'not_yet_approved' ) ;
#126 = ORIENTED_EDGE ( 'NONE', *, *, #35, .F. ) ;
#127 = DATE_TIME_ROLE ( 'classification_date' ) ;
#128 = DIRECTION ( 'NONE',  ( 0.0000000000000000000, 0.0000000000000000000, 1.000000000000000000 ) ) ;
#129 = FACE_OUTER_BOUND ( 'NONE', #49, .T. ) ;
#130 = APPROVAL_PERSON_ORGANIZATION ( #136, #108, #11 ) ;
#131 = AXIS2_PLACEMENT_3D ( 'NONE', #123, #173, #77 ) ;
#132 = PERSON_AND_ORGANIZATION ( #96, #32 ) ;
#133 = VECTOR ( 'NONE', #55, 1000.000000000000000 ) ;
#134 = EDGE_CURVE ( 'NONE', #162, #88, #116, .T. ) ;
#135 = COORDINATED_UNIVERSAL_TIME_OFFSET ( 5, 0, .BEHIND. ) ;
#136 = PERSON_AND_ORGANIZATION ( #96, #32 ) ;
#137 = UNCERTAINTY_MEASURE_WITH_UNIT (LENGTH_MEASURE( 1.000000000000000100E-005 ), #28, 'distance_accuracy_value', 'NONE');
#138 = CARTESIAN_POINT ( 'NONE',  ( 0.0000000000000000000, 0.0000000000000000000, 1.000000000000000000 ) ) ;
#139 = APPROVAL_DATE_TIME ( #76, #4 ) ;
#140 = CARTESIAN_POINT ( 'NONE',  ( 0.0000000000000000000, 0.0000000000000000000, 0.0000000000000000000 ) ) ;
#141 = FACE_OUTER_BOUND ( 'NONE', #98, .T. ) ;
#142 = APPLICATION_PROTOCOL_DEFINITION ( 'international standard', 'config_control_design', 1994, #73 ) ;
#143 = APPROVAL_PERSON_ORGANIZATION ( #132, #4, #103 ) ;
#144 = AXIS2_PLACEMENT_3D ( 'NONE', #80, #53, #69 ) ;
#145 = ORIENTED_EDGE ( 'NONE', *, *, #147, .T. ) ;
#146 = COORDINATED_UNIVERSAL_TIME_OFFSET ( 5, 0, .BEHIND. ) ;
#147 = EDGE_CURVE ( 'NONE', #162, #47, #148, .T. ) ;
#148 = CIRCLE ( 'NONE', #79, 5.000000000000000900 ) ;
#149 = CARTESIAN_POINT ( 'NONE',  ( 0.0000000000000000000, 0.0000000000000000000, 0.0000000000000000000 ) ) ;
#150 = CC_DESIGN_PERSON_AND_ORGANIZATION_ASSIGNMENT ( #12, #25, ( #33 ) ) ;
#151 = PERSON_AND_ORGANIZATION_ROLE ( 'design_supplier' ) ;
#152 = ORIENTED_EDGE ( 'NONE', *, *, #134, .T. ) ;
#153 = APPLICATION_PROTOCOL_DEFINITION ( 'international standard', 'config_control_design', 1994, #44 ) ;
#154 = ORIENTED_EDGE ( 'NONE', *, *, #26, .F. ) ;
#155 = APPROVAL_DATE_TIME ( #105, #97 ) ;
#156 = FACE_OUTER_BOUND ( 'NONE', #3, .T. ) ;
#157 = ADVANCED_BREP_SHAPE_REPRESENTATION ( 'Web Model 65922', ( #92, #171 ), #46 ) ;
#158 = COORDINATED_UNIVERSAL_TIME_OFFSET ( 5, 0, .BEHIND. ) ;
#159 = VECTOR ( 'NONE', #121, 1000.000000000000000 ) ;
#160 = CC_DESIGN_APPROVAL ( #108, ( #100 ) ) ;
#161 = DIRECTION ( 'NONE',  ( 1.000000000000000000, 0.0000000000000000000, -0.0000000000000000000 ) ) ;
#162 = VERTEX_POINT ( 'NONE', #14 ) ;
#163 = DIRECTION ( 'NONE',  ( 1.000000000000000000, 0.0000000000000000000, 0.0000000000000000000 ) ) ;
#164 = CARTESIAN_POINT ( 'NONE',  ( 5.000000000000000900, 6.123233995736767300E-016, 0.0000000000000000000 ) ) ;
#165 = LOCAL_TIME ( 14, 31, 38.00000000000000000, #135 ) ;
#166 = ORIENTED_EDGE ( 'NONE', *, *, #35, .T. ) ;
#167 = CC_DESIGN_DATE_AND_TIME_ASSIGNMENT ( #59, #87, ( #100 ) ) ;
#168 = LOCAL_TIME ( 14, 31, 38.00000000000000000, #17 ) ;
#169 = ORIENTED_EDGE ( 'NONE', *, *, #75, .T. ) ;
#170 = APPROVAL_PERSON_ORGANIZATION ( #82, #97, #81 ) ;
#171 = AXIS2_PLACEMENT_3D ( 'NONE', #102, #70, #163 ) ;
#172 = CARTESIAN_POINT ( 'NONE',  ( 5.000000000000000900, 6.123233995736767300E-016, 1.000000000000000000 ) ) ;
#173 = DIRECTION ( 'NONE',  ( 0.0000000000000000000, 0.0000000000000000000, 1.000000000000000000 ) ) ;
#174 = PRODUCT_DEFINITION_FORMATION_WITH_SPECIFIED_SOURCE ( 'ANY', '', #33, .NOT_KNOWN. ) ;
#175 = VERTEX_POINT ( 'NONE', #164 ) ;
ENDSEC;
END-ISO-10303-21;
