ISO-10303-21;
HEADER;
FILE_DESCRIPTION (( 'STEP AP203' ),
    '1' );
FILE_NAME ('Web Model 83467.STEP',
    '2017-02-01T15:21:59',
    ( '' ),
    ( '' ),
    'SwSTEP 2.0',
    'SolidWorks 2016',
    '' );
FILE_SCHEMA (( 'CONFIG_CONTROL_DESIGN' ));
ENDSEC;

DATA;
#1 = ORIENTED_EDGE ( 'NONE', *, *, #150, .F. ) ;
#2 = CARTESIAN_POINT ( 'NONE',  ( 5.000000000000000000, -5.000000000000001800, 2.000000000000000000 ) ) ;
#3 = CC_DESIGN_PERSON_AND_ORGANIZATION_ASSIGNMENT ( #49, #202, ( #225 ) ) ;
#4 = VECTOR ( 'NONE', #38, 1000.000000000000000 ) ;
#5 = AXIS2_PLACEMENT_3D ( 'NONE', #88, #214, #18 ) ;
#6 = AXIS2_PLACEMENT_3D ( 'NONE', #128, #109, #14 ) ;
#7 = CC_DESIGN_DATE_AND_TIME_ASSIGNMENT ( #87, #162, ( #187 ) ) ;
#8 = LINE ( 'NONE', #94, #206 ) ;
#9 = ORIENTED_EDGE ( 'NONE', *, *, #186, .F. ) ;
#10 = CARTESIAN_POINT ( 'NONE',  ( -5.000000000000000000, -5.000000000000001800, 0.0000000000000000000 ) ) ;
#11 = PERSON_AND_ORGANIZATION ( #68, #19 ) ;
#12 = VECTOR ( 'NONE', #90, 1000.000000000000000 ) ;
#13 = VERTEX_POINT ( 'NONE', #10 ) ;
#14 = DIRECTION ( 'NONE',  ( -0.0000000000000000000, 0.0000000000000000000, -1.000000000000000000 ) ) ;
#15 = EDGE_CURVE ( 'NONE', #168, #22, #173, .T. ) ;
#16 = DIRECTION ( 'NONE',  ( -0.0000000000000000000, -0.0000000000000000000, -1.000000000000000000 ) ) ;
#17 = ADVANCED_FACE ( 'NONE', ( #156 ), #107, .F. ) ;
#18 = DIRECTION ( 'NONE',  ( 0.0000000000000000000, -0.0000000000000000000, 1.000000000000000000 ) ) ;
#19 = ORGANIZATION ( 'UNSPECIFIED', 'UNSPECIFIED', '' ) ;
#20 = LINE ( 'NONE', #199, #82 ) ;
#21 = CARTESIAN_POINT ( 'NONE',  ( -5.000000000000000000, 4.999999999999998200, 2.000000000000000000 ) ) ;
#22 = VERTEX_POINT ( 'NONE', #34 ) ;
#23 = APPLICATION_CONTEXT ( 'configuration controlled 3d designs of mechanical parts and assemblies' ) ;
#24 = EDGE_CURVE ( 'NONE', #137, #168, #101, .T. ) ;
#25 = APPROVAL_ROLE ( '' ) ;
#26 = MECHANICAL_CONTEXT ( 'NONE', #23, 'mechanical' ) ;
#27 = APPROVAL_STATUS ( 'not_yet_approved' ) ;
#28 = EDGE_LOOP ( 'NONE', ( #112, #184, #151, #62 ) ) ;
#29 = MANIFOLD_SOLID_BREP ( 'Extrude1', #234 ) ;
#30 = VECTOR ( 'NONE', #76, 1000.000000000000000 ) ;
#31 = APPROVAL_DATE_TIME ( #236, #92 ) ;
#32 = DIRECTION ( 'NONE',  ( 0.0000000000000000000, -1.000000000000000000, 0.0000000000000000000 ) ) ;
#33 = CALENDAR_DATE ( 2017, 1, 2 ) ;
#34 = CARTESIAN_POINT ( 'NONE',  ( 4.999999999999998200, 4.999999999999998200, 0.0000000000000000000 ) ) ;
#35 = ADVANCED_FACE ( 'NONE', ( #211 ), #144, .F. ) ;
#36 = DIRECTION ( 'NONE',  ( -1.000000000000000000, -0.0000000000000000000, -0.0000000000000000000 ) ) ;
#37 = ORIENTED_EDGE ( 'NONE', *, *, #230, .F. ) ;
#38 = DIRECTION ( 'NONE',  ( -0.0000000000000000000, -0.0000000000000000000, -1.000000000000000000 ) ) ;
#39 = DIRECTION ( 'NONE',  ( 1.000000000000000000, 0.0000000000000000000, 0.0000000000000000000 ) ) ;
#40 = ORIENTED_EDGE ( 'NONE', *, *, #229, .F. ) ;
#41 = PERSON_AND_ORGANIZATION_ROLE ( 'design_supplier' ) ;
#42 = ORIENTED_EDGE ( 'NONE', *, *, #65, .T. ) ;
#43 = LINE ( 'NONE', #179, #53 ) ;
#44 = CC_DESIGN_APPROVAL ( #92, ( #48 ) ) ;
#45 = CARTESIAN_POINT ( 'NONE',  ( 5.000000000000000000, -5.000000000000001800, 2.000000000000000000 ) ) ;
#46 = CARTESIAN_POINT ( 'NONE',  ( 0.0000000000000000000, 0.0000000000000000000, 0.0000000000000000000 ) ) ;
#47 = FACE_OUTER_BOUND ( 'NONE', #75, .T. ) ;
#48 = PRODUCT_DEFINITION ( 'UNKNOWN', '', #84, #217 ) ;
#49 = PERSON_AND_ORGANIZATION ( #68, #19 ) ;
#50 = LINE ( 'NONE', #157, #188 ) ;
#51 = CALENDAR_DATE ( 2017, 1, 2 ) ;
#52 = LOCAL_TIME ( 10, 21, 59.00000000000000000, #167 ) ;
#53 = VECTOR ( 'NONE', #183, 1000.000000000000000 ) ;
#54 = EDGE_LOOP ( 'NONE', ( #166, #1, #170, #135 ) ) ;
#55 = VECTOR ( 'NONE', #36, 1000.000000000000000 ) ;
#56 = CARTESIAN_POINT ( 'NONE',  ( 4.999999999999998200, 4.999999999999998200, 2.000000000000000000 ) ) ;
#57 = LINE ( 'NONE', #176, #55 ) ;
#58 = CARTESIAN_POINT ( 'NONE',  ( 4.999999999999998200, 4.999999999999998200, 2.000000000000000000 ) ) ;
#59 = PLANE ( 'NONE',  #113 ) ;
#60 = DIRECTION ( 'NONE',  ( -1.000000000000000000, -1.734723475976807100E-016, 0.0000000000000000000 ) ) ;
#61 = CARTESIAN_POINT ( 'NONE',  ( -5.000000000000000000, -5.000000000000001800, 2.000000000000000000 ) ) ;
#62 = ORIENTED_EDGE ( 'NONE', *, *, #160, .T. ) ;
#63 = CARTESIAN_POINT ( 'NONE',  ( -5.000000000000000000, 4.999999999999998200, 2.000000000000000000 ) ) ;
#64 = CALENDAR_DATE ( 2017, 1, 2 ) ;
#65 = EDGE_CURVE ( 'NONE', #22, #139, #57, .T. ) ;
#66 = LINE ( 'NONE', #194, #30 ) ;
#67 = ORIENTED_EDGE ( 'NONE', *, *, #230, .T. ) ;
#68 = PERSON ( 'UNSPECIFIED', 'UNSPECIFIED', 'UNSPECIFIED', ('UNSPECIFIED'), ('UNSPECIFIED'), ('UNSPECIFIED') ) ;
#69 = LINE ( 'NONE', #146, #97 ) ;
#70 = LOCAL_TIME ( 10, 21, 59.00000000000000000, #111 ) ;
#71 = EDGE_CURVE ( 'NONE', #99, #13, #69, .T. ) ;
#72 = DIRECTION ( 'NONE',  ( -0.0000000000000000000, 0.0000000000000000000, 1.000000000000000000 ) ) ;
#73 = CC_DESIGN_DATE_AND_TIME_ASSIGNMENT ( #172, #205, ( #48 ) ) ;
#74 = ADVANCED_FACE ( 'NONE', ( #47 ), #237, .F. ) ;
#75 = EDGE_LOOP ( 'NONE', ( #42, #40, #37, #122 ) ) ;
#76 = DIRECTION ( 'NONE',  ( 1.000000000000000000, 0.0000000000000000000, 0.0000000000000000000 ) ) ;
#77 = DIRECTION ( 'NONE',  ( 0.0000000000000000000, 0.0000000000000000000, 1.000000000000000000 ) ) ;
#78 = DIRECTION ( 'NONE',  ( 0.0000000000000000000, -1.000000000000000000, 0.0000000000000000000 ) ) ;
#79 = PLANE ( 'NONE',  #119 ) ;
#80 = COORDINATED_UNIVERSAL_TIME_OFFSET ( 5, 0, .BEHIND. ) ;
#81 = APPLICATION_CONTEXT ( 'configuration controlled 3d designs of mechanical parts and assemblies' ) ;
#82 = VECTOR ( 'NONE', #220, 1000.000000000000000 ) ;
#83 = ORIENTED_EDGE ( 'NONE', *, *, #186, .T. ) ;
#84 = PRODUCT_DEFINITION_FORMATION_WITH_SPECIFIED_SOURCE ( 'ANY', '', #225, .NOT_KNOWN. ) ;
#85 = ORIENTED_EDGE ( 'NONE', *, *, #71, .T. ) ;
#86 = FACE_OUTER_BOUND ( 'NONE', #28, .T. ) ;
#87 = DATE_AND_TIME ( #33, #70 ) ;
#88 = CARTESIAN_POINT ( 'NONE',  ( -5.000000000000000000, -5.000000000000001800, 2.000000000000000000 ) ) ;
#89 = LOCAL_TIME ( 10, 21, 59.00000000000000000, #181 ) ;
#90 = DIRECTION ( 'NONE',  ( -1.734723475976807100E-016, 1.000000000000000000, -0.0000000000000000000 ) ) ;
#91 = ADVANCED_FACE ( 'NONE', ( #200 ), #169, .F. ) ;
#92 = APPROVAL ( #27, 'UNSPECIFIED' ) ;
#93 = CARTESIAN_POINT ( 'NONE',  ( -5.000000000000000000, 4.999999999999998200, 2.000000000000000000 ) ) ;
#94 = CARTESIAN_POINT ( 'NONE',  ( 4.999999999999998200, 4.999999999999998200, 0.0000000000000000000 ) ) ;
#95 = ORIENTED_EDGE ( 'NONE', *, *, #150, .T. ) ;
#96 = DIRECTION ( 'NONE',  ( -1.000000000000000000, -0.0000000000000000000, -0.0000000000000000000 ) ) ;
#97 = VECTOR ( 'NONE', #147, 1000.000000000000000 ) ;
#98 = PERSON_AND_ORGANIZATION ( #68, #19 ) ;
#99 = VERTEX_POINT ( 'NONE', #216 ) ;
#100 = CC_DESIGN_PERSON_AND_ORGANIZATION_ASSIGNMENT ( #222, #161, ( #48 ) ) ;
#101 = LINE ( 'NONE', #125, #12 ) ;
#102 = VERTEX_POINT ( 'NONE', #21 ) ;
#103 = AXIS2_PLACEMENT_3D ( 'NONE', #190, #72, #39 ) ;
#104 = APPROVAL ( #133, 'UNSPECIFIED' ) ;
#105 = ORIENTED_EDGE ( 'NONE', *, *, #24, .T. ) ;
#106 = ORIENTED_EDGE ( 'NONE', *, *, #71, .F. ) ;
#107 = PLANE ( 'NONE',  #5 ) ;
#108 = LOCAL_TIME ( 10, 21, 59.00000000000000000, #80 ) ;
#109 = DIRECTION ( 'NONE',  ( 1.000000000000000000, 0.0000000000000000000, -0.0000000000000000000 ) ) ;
#110 =( LENGTH_UNIT ( ) NAMED_UNIT ( * ) SI_UNIT ( .MILLI., .METRE. ) );
#111 = COORDINATED_UNIVERSAL_TIME_OFFSET ( 5, 0, .BEHIND. ) ;
#112 = ORIENTED_EDGE ( 'NONE', *, *, #192, .T. ) ;
#113 = AXIS2_PLACEMENT_3D ( 'NONE', #154, #60, #152 ) ;
#114 = APPROVAL_ROLE ( '' ) ;
#115 = CC_DESIGN_PERSON_AND_ORGANIZATION_ASSIGNMENT ( #98, #134, ( #84 ) ) ;
#116 = VECTOR ( 'NONE', #16, 1000.000000000000000 ) ;
#117 = APPROVAL_ROLE ( '' ) ;
#118 = PERSON_AND_ORGANIZATION ( #68, #19 ) ;
#119 = AXIS2_PLACEMENT_3D ( 'NONE', #45, #130, #155 ) ;
#120 = CC_DESIGN_APPROVAL ( #104, ( #84 ) ) ;
#121 = LOCAL_TIME ( 10, 21, 59.00000000000000000, #231 ) ;
#122 = ORIENTED_EDGE ( 'NONE', *, *, #15, .T. ) ;
#123 = AXIS2_PLACEMENT_3D ( 'NONE', #93, #32, #143 ) ;
#124 = ORIENTED_EDGE ( 'NONE', *, *, #229, .T. ) ;
#125 = CARTESIAN_POINT ( 'NONE',  ( 4.999999999999998200, 4.999999999999998200, 2.000000000000000000 ) ) ;
#126 = APPROVAL_DATE_TIME ( #158, #127 ) ;
#127 = APPROVAL ( #224, 'UNSPECIFIED' ) ;
#128 = CARTESIAN_POINT ( 'NONE',  ( -5.000000000000000000, 4.999999999999998200, 2.000000000000000000 ) ) ;
#129 = CARTESIAN_POINT ( 'NONE',  ( 5.000000000000000000, -5.000000000000001800, 2.000000000000000000 ) ) ;
#130 = DIRECTION ( 'NONE',  ( -0.0000000000000000000, 0.0000000000000000000, 1.000000000000000000 ) ) ;
#131 = DIRECTION ( 'NONE',  ( -1.734723475976807100E-016, 1.000000000000000000, -0.0000000000000000000 ) ) ;
#132 = SECURITY_CLASSIFICATION_LEVEL ( 'unclassified' ) ;
#133 = APPROVAL_STATUS ( 'not_yet_approved' ) ;
#134 = PERSON_AND_ORGANIZATION_ROLE ( 'creator' ) ;
#135 = ORIENTED_EDGE ( 'NONE', *, *, #65, .F. ) ;
#136 = PRODUCT_DEFINITION_SHAPE ( 'NONE', 'NONE',  #48 ) ;
#137 = VERTEX_POINT ( 'NONE', #2 ) ;
#138 = ORIENTED_EDGE ( 'NONE', *, *, #182, .T. ) ;
#139 = VERTEX_POINT ( 'NONE', #218 ) ;
#140 = APPROVAL_DATE_TIME ( #201, #104 ) ;
#141 = CC_DESIGN_SECURITY_CLASSIFICATION ( #187, ( #84 ) ) ;
#142 = VECTOR ( 'NONE', #177, 1000.000000000000000 ) ;
#143 = DIRECTION ( 'NONE',  ( 0.0000000000000000000, -0.0000000000000000000, -1.000000000000000000 ) ) ;
#144 = PLANE ( 'NONE',  #6 ) ;
#145 = EDGE_LOOP ( 'NONE', ( #138, #106, #9, #124 ) ) ;
#146 = CARTESIAN_POINT ( 'NONE',  ( -5.000000000000000000, -5.000000000000001800, 2.000000000000000000 ) ) ;
#147 = DIRECTION ( 'NONE',  ( -0.0000000000000000000, -0.0000000000000000000, -1.000000000000000000 ) ) ;
#148 = ADVANCED_BREP_SHAPE_REPRESENTATION ( 'Web Model 83467', ( #29, #203 ), #191 ) ;
#149 = ADVANCED_FACE ( 'NONE', ( #165 ), #79, .T. ) ;
#150 = EDGE_CURVE ( 'NONE', #13, #212, #66, .T. ) ;
#151 = ORIENTED_EDGE ( 'NONE', *, *, #24, .F. ) ;
#152 = DIRECTION ( 'NONE',  ( 1.734723475976807100E-016, -1.000000000000000000, 0.0000000000000000000 ) ) ;
#153 =( NAMED_UNIT ( * ) SI_UNIT ( $, .STERADIAN. ) SOLID_ANGLE_UNIT ( ) );
#154 = CARTESIAN_POINT ( 'NONE',  ( 4.999999999999998200, 4.999999999999998200, 2.000000000000000000 ) ) ;
#155 = DIRECTION ( 'NONE',  ( 1.000000000000000000, 0.0000000000000000000, 0.0000000000000000000 ) ) ;
#156 = FACE_OUTER_BOUND ( 'NONE', #215, .T. ) ;
#157 = CARTESIAN_POINT ( 'NONE',  ( -5.000000000000000000, 4.999999999999998200, 0.0000000000000000000 ) ) ;
#158 = DATE_AND_TIME ( #228, #52 ) ;
#159 = APPLICATION_PROTOCOL_DEFINITION ( 'international standard', 'config_control_design', 1994, #81 ) ;
#160 = EDGE_CURVE ( 'NONE', #137, #212, #226, .T. ) ;
#161 = PERSON_AND_ORGANIZATION_ROLE ( 'creator' ) ;
#162 = DATE_TIME_ROLE ( 'classification_date' ) ;
#163 = ORIENTED_EDGE ( 'NONE', *, *, #160, .F. ) ;
#164 = CC_DESIGN_APPROVAL ( #127, ( #187 ) ) ;
#165 = FACE_OUTER_BOUND ( 'NONE', #210, .T. ) ;
#166 = ORIENTED_EDGE ( 'NONE', *, *, #192, .F. ) ;
#167 = COORDINATED_UNIVERSAL_TIME_OFFSET ( 5, 0, .BEHIND. ) ;
#168 = VERTEX_POINT ( 'NONE', #58 ) ;
#169 = PLANE ( 'NONE',  #103 ) ;
#170 = ORIENTED_EDGE ( 'NONE', *, *, #182, .F. ) ;
#171 = ADVANCED_FACE ( 'NONE', ( #86 ), #59, .F. ) ;
#172 = DATE_AND_TIME ( #64, #108 ) ;
#173 = LINE ( 'NONE', #56, #116 ) ;
#174 = CALENDAR_DATE ( 2017, 1, 2 ) ;
#175 = CC_DESIGN_PERSON_AND_ORGANIZATION_ASSIGNMENT ( #180, #41, ( #84 ) ) ;
#176 = CARTESIAN_POINT ( 'NONE',  ( -5.000000000000000000, 4.999999999999998200, 0.0000000000000000000 ) ) ;
#177 = DIRECTION ( 'NONE',  ( 1.000000000000000000, 0.0000000000000000000, 0.0000000000000000000 ) ) ;
#178 =( NAMED_UNIT ( * ) PLANE_ANGLE_UNIT ( ) SI_UNIT ( $, .RADIAN. ) );
#179 = CARTESIAN_POINT ( 'NONE',  ( -5.000000000000000000, 4.999999999999998200, 2.000000000000000000 ) ) ;
#180 = PERSON_AND_ORGANIZATION ( #68, #19 ) ;
#181 = COORDINATED_UNIVERSAL_TIME_OFFSET ( 5, 0, .BEHIND. ) ;
#182 = EDGE_CURVE ( 'NONE', #139, #13, #50, .T. ) ;
#183 = DIRECTION ( 'NONE',  ( -0.0000000000000000000, -0.0000000000000000000, -1.000000000000000000 ) ) ;
#184 = ORIENTED_EDGE ( 'NONE', *, *, #15, .F. ) ;
#185 = EDGE_CURVE ( 'NONE', #99, #137, #193, .T. ) ;
#186 = EDGE_CURVE ( 'NONE', #102, #99, #20, .T. ) ;
#187 = SECURITY_CLASSIFICATION ( '', '', #132 ) ;
#188 = VECTOR ( 'NONE', #78, 1000.000000000000000 ) ;
#189 = APPROVAL_PERSON_ORGANIZATION ( #196, #127, #117 ) ;
#190 = CARTESIAN_POINT ( 'NONE',  ( 5.000000000000000000, -5.000000000000001800, 0.0000000000000000000 ) ) ;
#191 =( GEOMETRIC_REPRESENTATION_CONTEXT ( 3 ) GLOBAL_UNCERTAINTY_ASSIGNED_CONTEXT ( ( #209 ) ) GLOBAL_UNIT_ASSIGNED_CONTEXT ( ( #110, #178, #153 ) ) REPRESENTATION_CONTEXT ( 'NONE', 'WORKASPACE' ) );
#192 = EDGE_CURVE ( 'NONE', #212, #22, #8, .T. ) ;
#193 = LINE ( 'NONE', #61, #142 ) ;
#194 = CARTESIAN_POINT ( 'NONE',  ( -5.000000000000000000, -5.000000000000001800, 0.0000000000000000000 ) ) ;
#195 = CARTESIAN_POINT ( 'NONE',  ( 5.000000000000000000, -5.000000000000001800, 0.0000000000000000000 ) ) ;
#196 = PERSON_AND_ORGANIZATION ( #68, #19 ) ;
#197 = APPLICATION_PROTOCOL_DEFINITION ( 'international standard', 'config_control_design', 1994, #23 ) ;
#198 = APPROVAL_PERSON_ORGANIZATION ( #11, #92, #114 ) ;
#199 = CARTESIAN_POINT ( 'NONE',  ( -5.000000000000000000, 4.999999999999998200, 2.000000000000000000 ) ) ;
#200 = FACE_OUTER_BOUND ( 'NONE', #54, .T. ) ;
#201 = DATE_AND_TIME ( #51, #89 ) ;
#202 = PERSON_AND_ORGANIZATION_ROLE ( 'design_owner' ) ;
#203 = AXIS2_PLACEMENT_3D ( 'NONE', #46, #77, #221 ) ;
#204 = VECTOR ( 'NONE', #96, 1000.000000000000000 ) ;
#205 = DATE_TIME_ROLE ( 'creation_date' ) ;
#206 = VECTOR ( 'NONE', #131, 1000.000000000000000 ) ;
#207 = LINE ( 'NONE', #63, #204 ) ;
#208 = SHAPE_DEFINITION_REPRESENTATION ( #136, #148 ) ;
#209 = UNCERTAINTY_MEASURE_WITH_UNIT (LENGTH_MEASURE( 1.000000000000000100E-005 ), #110, 'distance_accuracy_value', 'NONE');
#210 = EDGE_LOOP ( 'NONE', ( #105, #67, #83, #227 ) ) ;
#211 = FACE_OUTER_BOUND ( 'NONE', #145, .T. ) ;
#212 = VERTEX_POINT ( 'NONE', #195 ) ;
#213 = PERSON_AND_ORGANIZATION ( #68, #19 ) ;
#214 = DIRECTION ( 'NONE',  ( 0.0000000000000000000, 1.000000000000000000, 0.0000000000000000000 ) ) ;
#215 = EDGE_LOOP ( 'NONE', ( #95, #163, #219, #85 ) ) ;
#216 = CARTESIAN_POINT ( 'NONE',  ( -5.000000000000000000, -5.000000000000001800, 2.000000000000000000 ) ) ;
#217 = DESIGN_CONTEXT ( 'detailed design', #81, 'design' ) ;
#218 = CARTESIAN_POINT ( 'NONE',  ( -5.000000000000000000, 4.999999999999998200, 0.0000000000000000000 ) ) ;
#219 = ORIENTED_EDGE ( 'NONE', *, *, #185, .F. ) ;
#220 = DIRECTION ( 'NONE',  ( 0.0000000000000000000, -1.000000000000000000, 0.0000000000000000000 ) ) ;
#221 = DIRECTION ( 'NONE',  ( 1.000000000000000000, 0.0000000000000000000, 0.0000000000000000000 ) ) ;
#222 = PERSON_AND_ORGANIZATION ( #68, #19 ) ;
#223 = PERSON_AND_ORGANIZATION_ROLE ( 'classification_officer' ) ;
#224 = APPROVAL_STATUS ( 'not_yet_approved' ) ;
#225 = PRODUCT ( 'Web Model 83467', 'Web Model 83467', '', ( #26 ) ) ;
#226 = LINE ( 'NONE', #129, #4 ) ;
#227 = ORIENTED_EDGE ( 'NONE', *, *, #185, .T. ) ;
#228 = CALENDAR_DATE ( 2017, 1, 2 ) ;
#229 = EDGE_CURVE ( 'NONE', #102, #139, #43, .T. ) ;
#230 = EDGE_CURVE ( 'NONE', #168, #102, #207, .T. ) ;
#231 = COORDINATED_UNIVERSAL_TIME_OFFSET ( 5, 0, .BEHIND. ) ;
#232 = CC_DESIGN_PERSON_AND_ORGANIZATION_ASSIGNMENT ( #118, #223, ( #187 ) ) ;
#233 = PRODUCT_RELATED_PRODUCT_CATEGORY ( 'detail', '', ( #225 ) ) ;
#234 = CLOSED_SHELL ( 'NONE', ( #171, #74, #35, #17, #149, #91 ) ) ;
#235 = APPROVAL_PERSON_ORGANIZATION ( #213, #104, #25 ) ;
#236 = DATE_AND_TIME ( #174, #121 ) ;
#237 = PLANE ( 'NONE',  #123 ) ;
ENDSEC;
END-ISO-10303-21;
