ISO-10303-21;
HEADER;
FILE_DESCRIPTION (( 'STEP AP203' ),
    '1' );
FILE_NAME ('24978-E0W.STEP',
    '2012-09-28T16:13:57',
    ( 'Admin' ),
    ( 'Thorlabs, Inc.' ),
    'SwSTEP 2.0',
    'SolidWorks 2011',
    '' );
FILE_SCHEMA (( 'CONFIG_CONTROL_DESIGN' ));
ENDSEC;

DATA;
#1 = ORIENTED_EDGE ( 'NONE', *, *, #2, .F. ) ;
#2 = EDGE_CURVE ( 'NONE', #54, #3, #65, .T. ) ;
#3 = VERTEX_POINT ( 'NONE', #75 ) ;
#4 = VERTEX_POINT ( 'NONE', #82 ) ;
#5 = EDGE_CURVE ( 'NONE', #3, #4, #76, .T. ) ;
#6 = ORIENTED_EDGE ( 'NONE', *, *, #2, .T. ) ;
#7 = ORIENTED_EDGE ( 'NONE', *, *, #5, .T. ) ;
#8 = ORIENTED_EDGE ( 'NONE', *, *, #15, .F. ) ;
#9 = ADVANCED_FACE ( 'NONE', ( #69 ), #53, .T. ) ;
#10 = EDGE_CURVE ( 'NONE', #49, #4, #78, .T. ) ;
#11 = ORIENTED_EDGE ( 'NONE', *, *, #19, .F. ) ;
#12 = VERTEX_POINT ( 'NONE', #153 ) ;
#13 = ADVANCED_FACE ( 'NONE', ( #146 ), #152, .T. ) ;
#14 = EDGE_LOOP ( 'NONE', ( #22, #17, #23, #21 ) ) ;
#15 = EDGE_CURVE ( 'NONE', #54, #49, #115, .T. ) ;
#16 = ORIENTED_EDGE ( 'NONE', *, *, #31, .T. ) ;
#17 = ORIENTED_EDGE ( 'NONE', *, *, #19, .T. ) ;
#18 = VERTEX_POINT ( 'NONE', #145 ) ;
#19 = EDGE_CURVE ( 'NONE', #18, #49, #103, .T. ) ;
#20 = EDGE_CURVE ( 'NONE', #18, #12, #143, .T. ) ;
#21 = ORIENTED_EDGE ( 'NONE', *, *, #31, .F. ) ;
#22 = ORIENTED_EDGE ( 'NONE', *, *, #20, .F. ) ;
#23 = ORIENTED_EDGE ( 'NONE', *, *, #10, .T. ) ;
#24 = ORIENTED_EDGE ( 'NONE', *, *, #29, .F. ) ;
#25 = ORIENTED_EDGE ( 'NONE', *, *, #30, .T. ) ;
#26 = ORIENTED_EDGE ( 'NONE', *, *, #20, .T. ) ;
#27 = EDGE_LOOP ( 'NONE', ( #28, #26 ) ) ;
#28 = ORIENTED_EDGE ( 'NONE', *, *, #29, .T. ) ;
#29 = EDGE_CURVE ( 'NONE', #12, #18, #93, .T. ) ;
#30 = EDGE_CURVE ( 'NONE', #4, #49, #112, .T. ) ;
#31 = EDGE_CURVE ( 'NONE', #12, #4, #135, .T. ) ;
#32 = ORIENTED_EDGE ( 'NONE', *, *, #34, .T. ) ;
#33 = ADVANCED_FACE ( 'NONE', ( #136 ), #100, .T. ) ;
#34 = EDGE_CURVE ( 'NONE', #3, #54, #106, .T. ) ;
#35 = ORIENTED_EDGE ( 'NONE', *, *, #60, .F. ) ;
#36 = EDGE_LOOP ( 'NONE', ( #35, #64, #52 ) ) ;
#37 = ORIENTED_EDGE ( 'NONE', *, *, #15, .T. ) ;
#38 = EDGE_LOOP ( 'NONE', ( #42, #32, #37, #39 ) ) ;
#39 = ORIENTED_EDGE ( 'NONE', *, *, #30, .F. ) ;
#40 = CARTESIAN_POINT ( 'NONE',  ( 0.0000000000000000000, -4.140380124611125900E-015, -3.958578643762686400 ) ) ;
#41 = AXIS2_PLACEMENT_3D ( 'NONE', #40, #44, #56 ) ;
#42 = ORIENTED_EDGE ( 'NONE', *, *, #5, .F. ) ;
#43 = ADVANCED_FACE ( 'NONE', ( #130 ), #141, .T. ) ;
#44 = DIRECTION ( 'NONE',  ( -0.0000000000000000000, -1.228264597620001800E-016, -1.000000000000000000 ) ) ;
#45 = ADVANCED_FACE ( 'NONE', ( #101 ), #107, .T. ) ;
#46 = ORIENTED_EDGE ( 'NONE', *, *, #10, .F. ) ;
#47 = EDGE_LOOP ( 'NONE', ( #6, #7, #46, #8 ) ) ;
#48 = CLOSED_SHELL ( 'NONE', ( #77, #51, #13, #33, #9, #43, #45 ) ) ;
#49 = VERTEX_POINT ( 'NONE', #109 ) ;
#50 = EDGE_LOOP ( 'NONE', ( #11, #24, #16, #25 ) ) ;
#51 = ADVANCED_FACE ( 'NONE', ( #88 ), #117, .T. ) ;
#52 = ORIENTED_EDGE ( 'NONE', *, *, #34, .F. ) ;
#53 = CONICAL_SURFACE ( 'NONE', #59, 12.55857864376269200, 0.7853981633974360700 ) ;
#54 = VERTEX_POINT ( 'NONE', #83 ) ;
#55 = ORIENTED_EDGE ( 'NONE', *, *, #60, .T. ) ;
#56 = DIRECTION ( 'NONE',  ( 0.0000000000000000000, 1.000000000000000000, -1.365923996832131400E-016 ) ) ;
#57 = DIRECTION ( 'NONE',  ( 0.0000000000000000000, -1.000000000000000000, 1.381305580180739600E-016 ) ) ;
#58 = DIRECTION ( 'NONE',  ( 0.0000000000000000000, 1.228264597620001800E-016, 1.000000000000000000 ) ) ;
#59 = AXIS2_PLACEMENT_3D ( 'NONE', #62, #58, #57 ) ;
#60 = EDGE_CURVE ( 'NONE', #74, #3, #119, .T. ) ;
#61 = EDGE_LOOP ( 'NONE', ( #63, #55, #1 ) ) ;
#62 = CARTESIAN_POINT ( 'NONE',  ( 0.0000000000000000000, -4.157750409132496100E-015, -4.099999999999999600 ) ) ;
#63 = ORIENTED_EDGE ( 'NONE', *, *, #70, .F. ) ;
#64 = ORIENTED_EDGE ( 'NONE', *, *, #70, .T. ) ;
#65 = CIRCLE ( 'NONE', #68, 12.69999999999999900 ) ;
#66 = ADVANCED_BREP_SHAPE_REPRESENTATION ( '24978-E0W', ( #84, #227 ), #71 ) ;
#67 = DIRECTION ( 'NONE',  ( -0.0000000000000000000, -1.228264597620001800E-016, -1.000000000000000000 ) ) ;
#68 = AXIS2_PLACEMENT_3D ( 'NONE', #72, #67, #73 ) ;
#69 = FACE_OUTER_BOUND ( 'NONE', #50, .T. ) ;
#70 = EDGE_CURVE ( 'NONE', #74, #54, #167, .T. ) ;
#71 =( GEOMETRIC_REPRESENTATION_CONTEXT ( 3 ) GLOBAL_UNCERTAINTY_ASSIGNED_CONTEXT ( ( #164 ) ) GLOBAL_UNIT_ASSIGNED_CONTEXT ( ( #168, #157, #165 ) ) REPRESENTATION_CONTEXT ( 'NONE', 'WORKASPACE' ) );
#72 = CARTESIAN_POINT ( 'NONE',  ( 0.0000000000000000000, -3.912097489608495700E-015, -2.099999999999997900 ) ) ;
#73 = DIRECTION ( 'NONE',  ( 0.0000000000000000000, 1.000000000000000000, -1.365923996832131600E-016 ) ) ;
#74 = VERTEX_POINT ( 'NONE', #159 ) ;
#75 = CARTESIAN_POINT ( 'NONE',  ( 1.555301434917138400E-015, -12.70000000000000300, -2.099999999999996100 ) ) ;
#76 = LINE ( 'NONE', #81, #80 ) ;
#77 = ADVANCED_FACE ( 'NONE', ( #166 ), #161, .T. ) ;
#78 = CIRCLE ( 'NONE', #41, 12.70000000000000300 ) ;
#79 = DIRECTION ( 'NONE',  ( -0.0000000000000000000, -1.228264597620001800E-016, -1.000000000000000000 ) ) ;
#80 = VECTOR ( 'NONE', #79, 1000.000000000000000 ) ;
#81 = CARTESIAN_POINT ( 'NONE',  ( 1.555301434917138400E-015, -12.70000000000000800, -37.95060855119437800 ) ) ;
#82 = CARTESIAN_POINT ( 'NONE',  ( 0.0000000000000000000, -12.70000000000000500, -3.958578643762684600 ) ) ;
#83 = CARTESIAN_POINT ( 'NONE',  ( 0.0000000000000000000, 12.69999999999999600, -2.099999999999999600 ) ) ;
#84 = MANIFOLD_SOLID_BREP ( '24978-001-1-solid1', #48 ) ;
#85 = DIRECTION ( 'NONE',  ( 0.0000000000000000000, 1.000000000000000000, 0.0000000000000000000 ) ) ;
#86 = CARTESIAN_POINT ( 'NONE',  ( 0.0000000000000000000, -8.315500818264992100E-015, -37.95060855119437800 ) ) ;
#87 = CARTESIAN_POINT ( 'NONE',  ( 0.0000000000000000000, -4.157750409132496100E-015, -4.099999999999999600 ) ) ;
#88 = FACE_OUTER_BOUND ( 'NONE', #47, .T. ) ;
#89 = AXIS2_PLACEMENT_3D ( 'NONE', #151, #150, #85 ) ;
#90 = DIRECTION ( 'NONE',  ( -0.0000000000000000000, -1.228264597620001800E-016, -1.000000000000000000 ) ) ;
#91 = CARTESIAN_POINT ( 'NONE',  ( 0.0000000000000000000, -4.157750409132496100E-015, -4.099999999999999600 ) ) ;
#92 = AXIS2_PLACEMENT_3D ( 'NONE', #91, #90, #126 ) ;
#93 = CIRCLE ( 'NONE', #92, 12.55857864376269400 ) ;
#94 = DIRECTION ( 'NONE',  ( 0.0000000000000000000, 1.000000000000000000, -1.381305580180739300E-016 ) ) ;
#95 = AXIS2_PLACEMENT_3D ( 'NONE', #96, #124, #94 ) ;
#96 = CARTESIAN_POINT ( 'NONE',  ( 0.0000000000000000000, -4.157750409132496100E-015, -4.099999999999999600 ) ) ;
#97 = DIRECTION ( 'NONE',  ( 8.659560562354828100E-017, 0.7071067811865390200, 0.7071067811865561200 ) ) ;
#98 = VECTOR ( 'NONE', #97, 1000.000000000000000 ) ;
#99 = CARTESIAN_POINT ( 'NONE',  ( 1.537982313792428900E-015, 12.55857864376268800, -4.100000000000001400 ) ) ;
#100 = PLANE ( 'NONE',  #127 ) ;
#101 = FACE_OUTER_BOUND ( 'NONE', #36, .T. ) ;
#102 = DIRECTION ( 'NONE',  ( 0.0000000000000000000, 1.228264597620001800E-016, 1.000000000000000000 ) ) ;
#103 = LINE ( 'NONE', #99, #98 ) ;
#104 = DIRECTION ( 'NONE',  ( 0.0000000000000000000, -1.000000000000000000, 1.381305580180739600E-016 ) ) ;
#105 = DIRECTION ( 'NONE',  ( -0.0000000000000000000, -1.228264597620001800E-016, -1.000000000000000000 ) ) ;
#106 = CIRCLE ( 'NONE', #134, 12.69999999999999900 ) ;
#107 = TOROIDAL_SURFACE ( 'NONE', #116, 0.003543497455670278900, 16.10000000000000100 ) ;
#108 = CARTESIAN_POINT ( 'NONE',  ( 0.0000000000000000000, -5.127937462677534300E-015, -11.99999961005048700 ) ) ;
#109 = CARTESIAN_POINT ( 'NONE',  ( 1.555301434917138600E-015, 12.69999999999999800, -3.958578643762688200 ) ) ;
#110 = DIRECTION ( 'NONE',  ( -1.224646799147353200E-016, 1.000000000000000000, 0.0000000000000000000 ) ) ;
#111 = AXIS2_PLACEMENT_3D ( 'NONE', #118, #121, #110 ) ;
#112 = CIRCLE ( 'NONE', #140, 12.70000000000000300 ) ;
#113 = DIRECTION ( 'NONE',  ( -0.0000000000000000000, -1.228264597620001800E-016, -1.000000000000000000 ) ) ;
#114 = VECTOR ( 'NONE', #113, 1000.000000000000000 ) ;
#115 = LINE ( 'NONE', #144, #114 ) ;
#116 = AXIS2_PLACEMENT_3D ( 'NONE', #108, #105, #120 ) ;
#117 = CYLINDRICAL_SURFACE ( 'NONE', #142, 12.69999999999999900 ) ;
#118 = CARTESIAN_POINT ( 'NONE',  ( 4.339532816873396900E-019, -0.003543497455675406700, -11.99999961005048700 ) ) ;
#119 = CIRCLE ( 'NONE', #111, 16.10000000000000100 ) ;
#120 = DIRECTION ( 'NONE',  ( 0.0000000000000000000, 1.000000000000000000, -1.228264597620001800E-016 ) ) ;
#121 = DIRECTION ( 'NONE',  ( 1.000000000000000000, 1.224646799147353200E-016, -1.504190307981346900E-032 ) ) ;
#122 = DIRECTION ( 'NONE',  ( 0.0000000000000000000, 1.000000000000000000, 0.0000000000000000000 ) ) ;
#123 = DIRECTION ( 'NONE',  ( -0.0000000000000000000, -1.228264597620001800E-016, -1.000000000000000000 ) ) ;
#124 = DIRECTION ( 'NONE',  ( -0.0000000000000000000, -1.228264597620001800E-016, -1.000000000000000000 ) ) ;
#125 = CARTESIAN_POINT ( 'NONE',  ( 0.0000000000000000000, -4.140380124611125900E-015, -3.958578643762686400 ) ) ;
#126 = DIRECTION ( 'NONE',  ( 0.0000000000000000000, 1.000000000000000000, -1.381305580180739300E-016 ) ) ;
#127 = AXIS2_PLACEMENT_3D ( 'NONE', #139, #138, #137 ) ;
#128 = DIRECTION ( 'NONE',  ( 0.0000000000000000000, 1.000000000000000000, -1.365923996832131400E-016 ) ) ;
#129 = DIRECTION ( 'NONE',  ( -0.0000000000000000000, -1.228264597620001800E-016, -1.000000000000000000 ) ) ;
#130 = FACE_OUTER_BOUND ( 'NONE', #38, .T. ) ;
#131 = DIRECTION ( 'NONE',  ( 0.0000000000000000000, 1.000000000000000000, -1.365923996832131600E-016 ) ) ;
#132 = DIRECTION ( 'NONE',  ( -0.0000000000000000000, -1.228264597620001800E-016, -1.000000000000000000 ) ) ;
#133 = CARTESIAN_POINT ( 'NONE',  ( 0.0000000000000000000, -3.912097489608495700E-015, -2.099999999999997900 ) ) ;
#134 = AXIS2_PLACEMENT_3D ( 'NONE', #133, #132, #131 ) ;
#135 = LINE ( 'NONE', #149, #148 ) ;
#136 = FACE_OUTER_BOUND ( 'NONE', #27, .T. ) ;
#137 = DIRECTION ( 'NONE',  ( 0.0000000000000000000, 1.000000000000000000, -1.228264597620001800E-016 ) ) ;
#138 = DIRECTION ( 'NONE',  ( 0.0000000000000000000, -1.228264597620001800E-016, -1.000000000000000000 ) ) ;
#139 = CARTESIAN_POINT ( 'NONE',  ( 0.0000000000000000000, -4.169996877123971000E-015, -4.099999999999998800 ) ) ;
#140 = AXIS2_PLACEMENT_3D ( 'NONE', #125, #129, #128 ) ;
#141 = CYLINDRICAL_SURFACE ( 'NONE', #89, 12.69999999999999900 ) ;
#142 = AXIS2_PLACEMENT_3D ( 'NONE', #86, #123, #122 ) ;
#143 = CIRCLE ( 'NONE', #95, 12.55857864376269400 ) ;
#144 = CARTESIAN_POINT ( 'NONE',  ( 0.0000000000000000000, 12.69999999999999000, -37.95060855119437800 ) ) ;
#145 = CARTESIAN_POINT ( 'NONE',  ( 1.546641874354783800E-015, 12.55857864376269000, -4.100000000000001400 ) ) ;
#146 = FACE_OUTER_BOUND ( 'NONE', #14, .T. ) ;
#147 = DIRECTION ( 'NONE',  ( 0.0000000000000000000, -0.7071067811865388000, 0.7071067811865563400 ) ) ;
#148 = VECTOR ( 'NONE', #147, 1000.000000000000000 ) ;
#149 = CARTESIAN_POINT ( 'NONE',  ( 0.0000000000000000000, -12.55857864376269500, -4.099999999999997900 ) ) ;
#150 = DIRECTION ( 'NONE',  ( -0.0000000000000000000, -1.228264597620001800E-016, -1.000000000000000000 ) ) ;
#151 = CARTESIAN_POINT ( 'NONE',  ( 0.0000000000000000000, -8.315500818264992100E-015, -37.95060855119437800 ) ) ;
#152 = CONICAL_SURFACE ( 'NONE', #154, 12.55857864376269200, 0.7853981633974360700 ) ;
#153 = CARTESIAN_POINT ( 'NONE',  ( 0.0000000000000000000, -12.55857864376269700, -4.099999999999997900 ) ) ;
#154 = AXIS2_PLACEMENT_3D ( 'NONE', #87, #102, #104 ) ;
#155 = AXIS2_PLACEMENT_3D ( 'NONE', #163, #162, #160 ) ;
#156 = AXIS2_PLACEMENT_3D ( 'NONE', #158, #170, #169 ) ;
#157 =( NAMED_UNIT ( * ) PLANE_ANGLE_UNIT ( ) SI_UNIT ( $, .RADIAN. ) );
#158 = CARTESIAN_POINT ( 'NONE',  ( 0.0000000000000000000, 0.003543497455665151100, -11.99999961005048700 ) ) ;
#159 = CARTESIAN_POINT ( 'NONE',  ( 0.0000000000000000000, -5.174207252424800500E-015, 4.099999999999999600 ) ) ;
#160 = DIRECTION ( 'NONE',  ( 0.0000000000000000000, 1.000000000000000000, -1.228264597620001800E-016 ) ) ;
#161 = TOROIDAL_SURFACE ( 'NONE', #155, 0.003543497455670278900, 16.10000000000000100 ) ;
#162 = DIRECTION ( 'NONE',  ( -0.0000000000000000000, -1.228264597620001800E-016, -1.000000000000000000 ) ) ;
#163 = CARTESIAN_POINT ( 'NONE',  ( 0.0000000000000000000, -5.127937462677534300E-015, -11.99999961005048700 ) ) ;
#164 = UNCERTAINTY_MEASURE_WITH_UNIT (LENGTH_MEASURE( 1.000000000000000100E-005 ), #168, 'distance_accuracy_value', 'NONE');
#165 =( NAMED_UNIT ( * ) SI_UNIT ( $, .STERADIAN. ) SOLID_ANGLE_UNIT ( ) );
#166 = FACE_OUTER_BOUND ( 'NONE', #61, .T. ) ;
#167 = CIRCLE ( 'NONE', #156, 16.10000000000000100 ) ;
#168 =( LENGTH_UNIT ( ) NAMED_UNIT ( * ) SI_UNIT ( .MILLI., .METRE. ) );
#169 = DIRECTION ( 'NONE',  ( 0.0000000000000000000, 0.0000000000000000000, 1.000000000000000000 ) ) ;
#170 = DIRECTION ( 'NONE',  ( -1.000000000000000000, 0.0000000000000000000, 0.0000000000000000000 ) ) ;
#171 = PERSON ( 'UNSPECIFIED', 'UNSPECIFIED', 'UNSPECIFIED', ('UNSPECIFIED'), ('UNSPECIFIED'), ('UNSPECIFIED') ) ;
#172 = PRODUCT ( '24978-E0W', '24978-E0W', '', ( #173 ) ) ;
#173 = MECHANICAL_CONTEXT ( 'NONE', #175, 'mechanical' ) ;
#174 = APPLICATION_PROTOCOL_DEFINITION ( 'international standard', 'config_control_design', 1994, #175 ) ;
#175 = APPLICATION_CONTEXT ( 'configuration controlled 3d designs of mechanical parts and assemblies' ) ;
#176 = SHAPE_DEFINITION_REPRESENTATION ( #177, #66 ) ;
#177 = PRODUCT_DEFINITION_SHAPE ( 'NONE', 'NONE',  #244 ) ;
#178 = PRODUCT_RELATED_PRODUCT_CATEGORY ( 'detail', '', ( #172 ) ) ;
#179 = CC_DESIGN_SECURITY_CLASSIFICATION ( #200, ( #219 ) ) ;
#180 = CC_DESIGN_APPROVAL ( #188, ( #200 ) ) ;
#181 = APPROVAL_DATE_TIME ( #182, #188 ) ;
#182 = DATE_AND_TIME ( #183, #184 ) ;
#183 = CALENDAR_DATE ( 2012, 28, 9 ) ;
#184 = LOCAL_TIME ( 12, 13, 57.00000000000000000, #185 ) ;
#185 = COORDINATED_UNIVERSAL_TIME_OFFSET ( 5, 0, .BEHIND. ) ;
#186 = APPROVAL_PERSON_ORGANIZATION ( #190, #188, #187 ) ;
#187 = APPROVAL_ROLE ( '' ) ;
#188 = APPROVAL ( #189, 'UNSPECIFIED' ) ;
#189 = APPROVAL_STATUS ( 'not_yet_approved' ) ;
#190 = PERSON_AND_ORGANIZATION ( #171, #251 ) ;
#191 = CC_DESIGN_DATE_AND_TIME_ASSIGNMENT ( #193, #192, ( #200 ) ) ;
#192 = DATE_TIME_ROLE ( 'classification_date' ) ;
#193 = DATE_AND_TIME ( #194, #195 ) ;
#194 = CALENDAR_DATE ( 2012, 28, 9 ) ;
#195 = LOCAL_TIME ( 12, 13, 57.00000000000000000, #196 ) ;
#196 = COORDINATED_UNIVERSAL_TIME_OFFSET ( 5, 0, .BEHIND. ) ;
#197 = CC_DESIGN_PERSON_AND_ORGANIZATION_ASSIGNMENT ( #199, #198, ( #200 ) ) ;
#198 = PERSON_AND_ORGANIZATION_ROLE ( 'classification_officer' ) ;
#199 = PERSON_AND_ORGANIZATION ( #171, #251 ) ;
#200 = SECURITY_CLASSIFICATION ( '', '', #201 ) ;
#201 = SECURITY_CLASSIFICATION_LEVEL ( 'unclassified' ) ;
#202 = CC_DESIGN_PERSON_AND_ORGANIZATION_ASSIGNMENT ( #204, #203, ( #219 ) ) ;
#203 = PERSON_AND_ORGANIZATION_ROLE ( 'design_supplier' ) ;
#204 = PERSON_AND_ORGANIZATION ( #171, #251 ) ;
#205 = CC_DESIGN_PERSON_AND_ORGANIZATION_ASSIGNMENT ( #207, #206, ( #219 ) ) ;
#206 = PERSON_AND_ORGANIZATION_ROLE ( 'creator' ) ;
#207 = PERSON_AND_ORGANIZATION ( #171, #251 ) ;
#208 = CC_DESIGN_APPROVAL ( #216, ( #219 ) ) ;
#209 = APPROVAL_DATE_TIME ( #210, #216 ) ;
#210 = DATE_AND_TIME ( #211, #212 ) ;
#211 = CALENDAR_DATE ( 2012, 28, 9 ) ;
#212 = LOCAL_TIME ( 12, 13, 57.00000000000000000, #213 ) ;
#213 = COORDINATED_UNIVERSAL_TIME_OFFSET ( 5, 0, .BEHIND. ) ;
#214 = APPROVAL_PERSON_ORGANIZATION ( #218, #216, #215 ) ;
#215 = APPROVAL_ROLE ( '' ) ;
#216 = APPROVAL ( #217, 'UNSPECIFIED' ) ;
#217 = APPROVAL_STATUS ( 'not_yet_approved' ) ;
#218 = PERSON_AND_ORGANIZATION ( #171, #251 ) ;
#219 = PRODUCT_DEFINITION_FORMATION_WITH_SPECIFIED_SOURCE ( 'ANY', '', #172, .NOT_KNOWN. ) ;
#220 = CC_DESIGN_DATE_AND_TIME_ASSIGNMENT ( #222, #221, ( #244 ) ) ;
#221 = DATE_TIME_ROLE ( 'creation_date' ) ;
#222 = DATE_AND_TIME ( #223, #224 ) ;
#223 = CALENDAR_DATE ( 2012, 28, 9 ) ;
#224 = LOCAL_TIME ( 12, 13, 57.00000000000000000, #229 ) ;
#225 = DIRECTION ( 'NONE',  ( 1.000000000000000000, 0.0000000000000000000, 0.0000000000000000000 ) ) ;
#226 = DIRECTION ( 'NONE',  ( 0.0000000000000000000, 0.0000000000000000000, 1.000000000000000000 ) ) ;
#227 = AXIS2_PLACEMENT_3D ( 'NONE', #228, #226, #225 ) ;
#228 = CARTESIAN_POINT ( 'NONE',  ( 0.0000000000000000000, 0.0000000000000000000, 0.0000000000000000000 ) ) ;
#229 = COORDINATED_UNIVERSAL_TIME_OFFSET ( 5, 0, .BEHIND. ) ;
#230 = CC_DESIGN_PERSON_AND_ORGANIZATION_ASSIGNMENT ( #232, #231, ( #244 ) ) ;
#231 = PERSON_AND_ORGANIZATION_ROLE ( 'creator' ) ;
#232 = PERSON_AND_ORGANIZATION ( #171, #251 ) ;
#233 = CC_DESIGN_APPROVAL ( #241, ( #244 ) ) ;
#234 = APPROVAL_DATE_TIME ( #235, #241 ) ;
#235 = DATE_AND_TIME ( #236, #237 ) ;
#236 = CALENDAR_DATE ( 2012, 28, 9 ) ;
#237 = LOCAL_TIME ( 12, 13, 57.00000000000000000, #238 ) ;
#238 = COORDINATED_UNIVERSAL_TIME_OFFSET ( 5, 0, .BEHIND. ) ;
#239 = APPROVAL_PERSON_ORGANIZATION ( #243, #241, #240 ) ;
#240 = APPROVAL_ROLE ( '' ) ;
#241 = APPROVAL ( #242, 'UNSPECIFIED' ) ;
#242 = APPROVAL_STATUS ( 'not_yet_approved' ) ;
#243 = PERSON_AND_ORGANIZATION ( #171, #251 ) ;
#244 = PRODUCT_DEFINITION ( 'UNKNOWN', '', #219, #245 ) ;
#245 = DESIGN_CONTEXT ( 'detailed design', #247, 'design' ) ;
#246 = APPLICATION_PROTOCOL_DEFINITION ( 'international standard', 'config_control_design', 1994, #247 ) ;
#247 = APPLICATION_CONTEXT ( 'configuration controlled 3d designs of mechanical parts and assemblies' ) ;
#248 = CC_DESIGN_PERSON_AND_ORGANIZATION_ASSIGNMENT ( #250, #249, ( #172 ) ) ;
#249 = PERSON_AND_ORGANIZATION_ROLE ( 'design_owner' ) ;
#250 = PERSON_AND_ORGANIZATION ( #171, #251 ) ;
#251 = ORGANIZATION ( 'UNSPECIFIED', 'UNSPECIFIED', '' ) ;
ENDSEC;
END-ISO-10303-21;
