ISO-10303-21;
HEADER;
FILE_DESCRIPTION (( 'STEP AP203' ),
    '1' );
FILE_NAME ('Web Model 68523_17199.step',
    '2021-04-14T19:37:31',
    ( '' ),
    ( '' ),
    'SwSTEP 2.0',
    'SolidWorks 2018',
    '' );
FILE_SCHEMA (( 'CONFIG_CONTROL_DESIGN' ));
ENDSEC;

DATA;
#1 = CARTESIAN_POINT ( 'NONE',  ( 0.000000000000000000, 3.000000000000000000, -12.50000000000000000 ) ) ;
#2 = ADVANCED_FACE ( 'NONE', ( #128 ), #88, .F. ) ;
#3 = COORDINATED_UNIVERSAL_TIME_OFFSET ( 5, 0, .BEHIND. ) ;
#4 = FACE_OUTER_BOUND ( 'NONE', #87, .T. ) ;
#5 = DATE_AND_TIME ( #167, #171 ) ;
#6 = CARTESIAN_POINT ( 'NONE',  ( 0.000000000000000000, 3.000000000000000000, 0.000000000000000000 ) ) ;
#7 = AXIS2_PLACEMENT_3D ( 'NONE', #119, #61, #109 ) ;
#8 = DIRECTION ( 'NONE',  ( 0.000000000000000000, -0.000000000000000000, 1.000000000000000000 ) ) ;
#9 = EDGE_CURVE ( 'NONE', #159, #154, #123, .T. ) ;
#10 = PERSON_AND_ORGANIZATION_ROLE ( 'creator' ) ;
#11 = PRODUCT_DEFINITION ( 'UNKNOWN', '', #130, #125 ) ;
#12 = EDGE_LOOP ( 'NONE', ( #81, #49 ) ) ;
#13 =( NAMED_UNIT ( * ) SI_UNIT ( $, .STERADIAN. ) SOLID_ANGLE_UNIT ( ) );
#14 = ADVANCED_FACE ( 'NONE', ( #16 ), #36, .T. ) ;
#15 = CARTESIAN_POINT ( 'NONE',  ( 1.530808498934191521E-15, 3.000000000000000000, 12.50000000000000000 ) ) ;
#16 = FACE_OUTER_BOUND ( 'NONE', #45, .T. ) ;
#17 = AXIS2_PLACEMENT_3D ( 'NONE', #126, #66, #69 ) ;
#18 = CC_DESIGN_DATE_AND_TIME_ASSIGNMENT ( #153, #121, ( #11 ) ) ;
#19 = DIRECTION ( 'NONE',  ( 0.000000000000000000, 1.000000000000000000, 0.000000000000000000 ) ) ;
#20 = COORDINATED_UNIVERSAL_TIME_OFFSET ( 5, 0, .BEHIND. ) ;
#21 = CARTESIAN_POINT ( 'NONE',  ( 0.000000000000000000, 3.000000000000000000, -12.50000000000000000 ) ) ;
#22 = EDGE_CURVE ( 'NONE', #169, #154, #86, .T. ) ;
#23 = PERSON_AND_ORGANIZATION_ROLE ( 'creator' ) ;
#24 = PERSON_AND_ORGANIZATION ( #96, #56 ) ;
#25 = AXIS2_PLACEMENT_3D ( 'NONE', #75, #170, #136 ) ;
#26 = DIRECTION ( 'NONE',  ( 0.000000000000000000, 0.000000000000000000, 1.000000000000000000 ) ) ;
#27 = CIRCLE ( 'NONE', #37, 12.50000000000000000 ) ;
#28 = SECURITY_CLASSIFICATION_LEVEL ( 'unclassified' ) ;
#29 = ORIENTED_EDGE ( 'NONE', *, *, #33, .T. ) ;
#30 = DIRECTION ( 'NONE',  ( 0.000000000000000000, 1.000000000000000000, 0.000000000000000000 ) ) ;
#31 = APPROVAL_PERSON_ORGANIZATION ( #122, #79, #80 ) ;
#32 = EDGE_LOOP ( 'NONE', ( #137, #100 ) ) ;
#33 = EDGE_CURVE ( 'NONE', #154, #159, #27, .T. ) ;
#34 = PERSON_AND_ORGANIZATION ( #96, #56 ) ;
#35 = LOCAL_TIME ( 15, 37, 31.00000000000000000, #117 ) ;
#36 = CYLINDRICAL_SURFACE ( 'NONE', #42, 12.50000000000000000 ) ;
#37 = AXIS2_PLACEMENT_3D ( 'NONE', #116, #151, #54 ) ;
#38 = APPROVAL ( #59, 'UNSPECIFIED' ) ;
#39 = PERSON_AND_ORGANIZATION ( #96, #56 ) ;
#40 = ORIENTED_EDGE ( 'NONE', *, *, #149, .F. ) ;
#41 = CALENDAR_DATE ( 2021, 14, 4 ) ;
#42 = AXIS2_PLACEMENT_3D ( 'NONE', #161, #67, #84 ) ;
#43 = PERSON_AND_ORGANIZATION ( #96, #56 ) ;
#44 = CC_DESIGN_PERSON_AND_ORGANIZATION_ASSIGNMENT ( #43, #160, ( #130 ) ) ;
#45 = EDGE_LOOP ( 'NONE', ( #40, #60, #29, #163 ) ) ;
#46 = CARTESIAN_POINT ( 'NONE',  ( 0.000000000000000000, 0.000000000000000000, -12.50000000000000000 ) ) ;
#47 = PERSON_AND_ORGANIZATION_ROLE ( 'design_owner' ) ;
#48 = APPROVAL_DATE_TIME ( #135, #79 ) ;
#49 = ORIENTED_EDGE ( 'NONE', *, *, #149, .T. ) ;
#50 = CARTESIAN_POINT ( 'NONE',  ( 0.000000000000000000, 3.000000000000000000, 0.000000000000000000 ) ) ;
#51 = AXIS2_PLACEMENT_3D ( 'NONE', #6, #103, #105 ) ;
#52 = PERSON_AND_ORGANIZATION_ROLE ( 'classification_officer' ) ;
#53 = CC_DESIGN_PERSON_AND_ORGANIZATION_ASSIGNMENT ( #150, #52, ( #141 ) ) ;
#54 = DIRECTION ( 'NONE',  ( 0.000000000000000000, 0.000000000000000000, 1.000000000000000000 ) ) ;
#55 = APPROVAL_PERSON_ORGANIZATION ( #143, #62, #64 ) ;
#56 = ORGANIZATION ( 'UNSPECIFIED', 'UNSPECIFIED', '' ) ;
#57 = PRODUCT ( 'Web Model 68523_17199', 'Web Model 68523_17199', '', ( #111 ) ) ;
#58 = APPLICATION_PROTOCOL_DEFINITION ( 'international standard', 'config_control_design', 1994, #155 ) ;
#59 = APPROVAL_STATUS ( 'not_yet_approved' ) ;
#60 = ORIENTED_EDGE ( 'NONE', *, *, #22, .T. ) ;
#61 = DIRECTION ( 'NONE',  ( 0.000000000000000000, 0.000000000000000000, 1.000000000000000000 ) ) ;
#62 = APPROVAL ( #65, 'UNSPECIFIED' ) ;
#63 = APPROVAL_DATE_TIME ( #102, #38 ) ;
#64 = APPROVAL_ROLE ( '' ) ;
#65 = APPROVAL_STATUS ( 'not_yet_approved' ) ;
#66 = DIRECTION ( 'NONE',  ( 0.000000000000000000, 1.000000000000000000, 0.000000000000000000 ) ) ;
#67 = DIRECTION ( 'NONE',  ( -0.000000000000000000, -1.000000000000000000, -0.000000000000000000 ) ) ;
#68 = EDGE_CURVE ( 'NONE', #78, #169, #166, .T. ) ;
#69 = DIRECTION ( 'NONE',  ( 0.000000000000000000, -0.000000000000000000, 1.000000000000000000 ) ) ;
#70 = LOCAL_TIME ( 15, 37, 31.00000000000000000, #3 ) ;
#71 = ORIENTED_EDGE ( 'NONE', *, *, #68, .F. ) ;
#72 = COORDINATED_UNIVERSAL_TIME_OFFSET ( 5, 0, .BEHIND. ) ;
#73 = PLANE ( 'NONE',  #93 ) ;
#74 = AXIS2_PLACEMENT_3D ( 'NONE', #50, #124, #26 ) ;
#75 = CARTESIAN_POINT ( 'NONE',  ( 0.000000000000000000, 3.000000000000000000, 0.000000000000000000 ) ) ;
#76 = CALENDAR_DATE ( 2021, 14, 4 ) ;
#77 = ORIENTED_EDGE ( 'NONE', *, *, #101, .T. ) ;
#78 = VERTEX_POINT ( 'NONE', #1 ) ;
#79 = APPROVAL ( #172, 'UNSPECIFIED' ) ;
#80 = APPROVAL_ROLE ( '' ) ;
#81 = ORIENTED_EDGE ( 'NONE', *, *, #68, .T. ) ;
#82 = APPLICATION_CONTEXT ( 'configuration controlled 3d designs of mechanical parts and assemblies' ) ;
#83 = COORDINATED_UNIVERSAL_TIME_OFFSET ( 5, 0, .BEHIND. ) ;
#84 = DIRECTION ( 'NONE',  ( 0.000000000000000000, 0.000000000000000000, -1.000000000000000000 ) ) ;
#85 = PERSON_AND_ORGANIZATION ( #96, #56 ) ;
#86 = LINE ( 'NONE', #15, #114 ) ;
#87 = EDGE_LOOP ( 'NONE', ( #138, #71, #77, #142 ) ) ;
#88 = PLANE ( 'NONE',  #17 ) ;
#89 = CC_DESIGN_APPROVAL ( #79, ( #11 ) ) ;
#90 = FACE_OUTER_BOUND ( 'NONE', #12, .T. ) ;
#91 = CARTESIAN_POINT ( 'NONE',  ( 0.000000000000000000, 3.000000000000000000, 0.000000000000000000 ) ) ;
#92 = LOCAL_TIME ( 15, 37, 31.00000000000000000, #83 ) ;
#93 = AXIS2_PLACEMENT_3D ( 'NONE', #91, #19, #8 ) ;
#94 = APPROVAL_ROLE ( '' ) ;
#95 = CC_DESIGN_APPROVAL ( #62, ( #141 ) ) ;
#96 = PERSON ( 'UNSPECIFIED', 'UNSPECIFIED', 'UNSPECIFIED', ('UNSPECIFIED'), ('UNSPECIFIED'), ('UNSPECIFIED') ) ;
#97 = APPLICATION_PROTOCOL_DEFINITION ( 'international standard', 'config_control_design', 1994, #82 ) ;
#98 = CC_DESIGN_PERSON_AND_ORGANIZATION_ASSIGNMENT ( #34, #23, ( #11 ) ) ;
#99 = LOCAL_TIME ( 15, 37, 31.00000000000000000, #20 ) ;
#100 = ORIENTED_EDGE ( 'NONE', *, *, #33, .F. ) ;
#101 = EDGE_CURVE ( 'NONE', #78, #159, #174, .T. ) ;
#102 = DATE_AND_TIME ( #139, #70 ) ;
#103 = DIRECTION ( 'NONE',  ( 0.000000000000000000, 1.000000000000000000, 0.000000000000000000 ) ) ;
#104 = ADVANCED_BREP_SHAPE_REPRESENTATION ( 'Web Model 68523_17199', ( #132, #7 ), #152 ) ;
#105 = DIRECTION ( 'NONE',  ( 0.000000000000000000, 0.000000000000000000, 1.000000000000000000 ) ) ;
#106 = CC_DESIGN_APPROVAL ( #38, ( #130 ) ) ;
#107 = VECTOR ( 'NONE', #120, 1000.000000000000000 ) ;
#108 = CARTESIAN_POINT ( 'NONE',  ( 1.530808498934191521E-15, 3.000000000000000000, 12.50000000000000000 ) ) ;
#109 = DIRECTION ( 'NONE',  ( 1.000000000000000000, 0.000000000000000000, 0.000000000000000000 ) ) ;
#110 = CALENDAR_DATE ( 2021, 14, 4 ) ;
#111 = MECHANICAL_CONTEXT ( 'NONE', #82, 'mechanical' ) ;
#112 = DIRECTION ( 'NONE',  ( -0.000000000000000000, -1.000000000000000000, -0.000000000000000000 ) ) ;
#113 = CC_DESIGN_DATE_AND_TIME_ASSIGNMENT ( #115, #147, ( #141 ) ) ;
#114 = VECTOR ( 'NONE', #112, 1000.000000000000000 ) ;
#115 = DATE_AND_TIME ( #41, #92 ) ;
#116 = CARTESIAN_POINT ( 'NONE',  ( 0.000000000000000000, 0.000000000000000000, 0.000000000000000000 ) ) ;
#117 = COORDINATED_UNIVERSAL_TIME_OFFSET ( 5, 0, .BEHIND. ) ;
#118 = CLOSED_SHELL ( 'NONE', ( #14, #165, #129, #2 ) ) ;
#119 = CARTESIAN_POINT ( 'NONE',  ( 0.000000000000000000, 0.000000000000000000, 0.000000000000000000 ) ) ;
#120 = DIRECTION ( 'NONE',  ( -0.000000000000000000, -1.000000000000000000, -0.000000000000000000 ) ) ;
#121 = DATE_TIME_ROLE ( 'creation_date' ) ;
#122 = PERSON_AND_ORGANIZATION ( #96, #56 ) ;
#123 = CIRCLE ( 'NONE', #175, 12.50000000000000000 ) ;
#124 = DIRECTION ( 'NONE',  ( 0.000000000000000000, 1.000000000000000000, 0.000000000000000000 ) ) ;
#125 = DESIGN_CONTEXT ( 'detailed design', #155, 'design' ) ;
#126 = CARTESIAN_POINT ( 'NONE',  ( 0.000000000000000000, 0.000000000000000000, 0.000000000000000000 ) ) ;
#127 = APPROVAL_PERSON_ORGANIZATION ( #24, #38, #94 ) ;
#128 = FACE_OUTER_BOUND ( 'NONE', #32, .T. ) ;
#129 = ADVANCED_FACE ( 'NONE', ( #90 ), #73, .T. ) ;
#130 = PRODUCT_DEFINITION_FORMATION_WITH_SPECIFIED_SOURCE ( 'ANY', '', #57, .NOT_KNOWN. ) ;
#131 = CYLINDRICAL_SURFACE ( 'NONE', #25, 12.50000000000000000 ) ;
#132 = MANIFOLD_SOLID_BREP ( 'Extrude1', #118 ) ;
#133 = CARTESIAN_POINT ( 'NONE',  ( 1.530808498934191521E-15, 0.000000000000000000, 12.50000000000000000 ) ) ;
#134 = CC_DESIGN_SECURITY_CLASSIFICATION ( #141, ( #130 ) ) ;
#135 = DATE_AND_TIME ( #76, #35 ) ;
#136 = DIRECTION ( 'NONE',  ( 0.000000000000000000, 0.000000000000000000, -1.000000000000000000 ) ) ;
#137 = ORIENTED_EDGE ( 'NONE', *, *, #9, .F. ) ;
#138 = ORIENTED_EDGE ( 'NONE', *, *, #22, .F. ) ;
#139 = CALENDAR_DATE ( 2021, 14, 4 ) ;
#140 = SHAPE_DEFINITION_REPRESENTATION ( #168, #104 ) ;
#141 = SECURITY_CLASSIFICATION ( '', '', #28 ) ;
#142 = ORIENTED_EDGE ( 'NONE', *, *, #9, .T. ) ;
#143 = PERSON_AND_ORGANIZATION ( #96, #56 ) ;
#144 = CIRCLE ( 'NONE', #74, 12.50000000000000000 ) ;
#145 = UNCERTAINTY_MEASURE_WITH_UNIT (LENGTH_MEASURE( 1.000000000000000082E-05 ), #173, 'distance_accuracy_value', 'NONE');
#146 = PRODUCT_RELATED_PRODUCT_CATEGORY ( 'detail', '', ( #57 ) ) ;
#147 = DATE_TIME_ROLE ( 'classification_date' ) ;
#148 = CC_DESIGN_PERSON_AND_ORGANIZATION_ASSIGNMENT ( #85, #10, ( #130 ) ) ;
#149 = EDGE_CURVE ( 'NONE', #169, #78, #144, .T. ) ;
#150 = PERSON_AND_ORGANIZATION ( #96, #56 ) ;
#151 = DIRECTION ( 'NONE',  ( 0.000000000000000000, 1.000000000000000000, 0.000000000000000000 ) ) ;
#152 =( GEOMETRIC_REPRESENTATION_CONTEXT ( 3 ) GLOBAL_UNCERTAINTY_ASSIGNED_CONTEXT ( ( #145 ) ) GLOBAL_UNIT_ASSIGNED_CONTEXT ( ( #173, #157, #13 ) ) REPRESENTATION_CONTEXT ( 'NONE', 'WORKASPACE' ) );
#153 = DATE_AND_TIME ( #110, #99 ) ;
#154 = VERTEX_POINT ( 'NONE', #133 ) ;
#155 = APPLICATION_CONTEXT ( 'configuration controlled 3d designs of mechanical parts and assemblies' ) ;
#156 = APPROVAL_DATE_TIME ( #5, #62 ) ;
#157 =( NAMED_UNIT ( * ) PLANE_ANGLE_UNIT ( ) SI_UNIT ( $, .RADIAN. ) );
#158 = CC_DESIGN_PERSON_AND_ORGANIZATION_ASSIGNMENT ( #39, #47, ( #57 ) ) ;
#159 = VERTEX_POINT ( 'NONE', #46 ) ;
#160 = PERSON_AND_ORGANIZATION_ROLE ( 'design_supplier' ) ;
#161 = CARTESIAN_POINT ( 'NONE',  ( 0.000000000000000000, 3.000000000000000000, 0.000000000000000000 ) ) ;
#162 = DIRECTION ( 'NONE',  ( 0.000000000000000000, 0.000000000000000000, 1.000000000000000000 ) ) ;
#163 = ORIENTED_EDGE ( 'NONE', *, *, #101, .F. ) ;
#164 = CARTESIAN_POINT ( 'NONE',  ( 0.000000000000000000, 0.000000000000000000, 0.000000000000000000 ) ) ;
#165 = ADVANCED_FACE ( 'NONE', ( #4 ), #131, .T. ) ;
#166 = CIRCLE ( 'NONE', #51, 12.50000000000000000 ) ;
#167 = CALENDAR_DATE ( 2021, 14, 4 ) ;
#168 = PRODUCT_DEFINITION_SHAPE ( 'NONE', 'NONE',  #11 ) ;
#169 = VERTEX_POINT ( 'NONE', #108 ) ;
#170 = DIRECTION ( 'NONE',  ( -0.000000000000000000, -1.000000000000000000, -0.000000000000000000 ) ) ;
#171 = LOCAL_TIME ( 15, 37, 31.00000000000000000, #72 ) ;
#172 = APPROVAL_STATUS ( 'not_yet_approved' ) ;
#173 =( LENGTH_UNIT ( ) NAMED_UNIT ( * ) SI_UNIT ( .MILLI., .METRE. ) );
#174 = LINE ( 'NONE', #21, #107 ) ;
#175 = AXIS2_PLACEMENT_3D ( 'NONE', #164, #30, #162 ) ;
ENDSEC;
END-ISO-10303-21;
