ISO-10303-21;
HEADER;
FILE_DESCRIPTION (( 'STEP AP203' ),
    '1' );
FILE_NAME ('36992_37001.step',
    '2017-09-06T15:56:16',
    ( '' ),
    ( '' ),
    'SwSTEP 2.0',
    'SolidWorks 2016',
    '' );
FILE_SCHEMA (( 'CONFIG_CONTROL_DESIGN' ));
ENDSEC;

DATA;
#1 = DIRECTION ( 'NONE',  ( 1.000000000000000000, 0.0000000000000000000, 0.0000000000000000000 ) ) ;
#2 = APPROVAL_PERSON_ORGANIZATION ( #38, #64, #9 ) ;
#3 = APPROVAL_PERSON_ORGANIZATION ( #172, #89, #85 ) ;
#4 = CLOSED_SHELL ( 'NONE', ( #174, #137, #147, #108 ) ) ;
#5 = SECURITY_CLASSIFICATION ( '', '', #26 ) ;
#6 = DIRECTION ( 'NONE',  ( 0.0000000000000000000, 0.0000000000000000000, 1.000000000000000000 ) ) ;
#7 = DIRECTION ( 'NONE',  ( -0.0000000000000000000, -0.0000000000000000000, -1.000000000000000000 ) ) ;
#8 = EDGE_CURVE ( 'NONE', #52, #119, #142, .T. ) ;
#9 = APPROVAL_ROLE ( '' ) ;
#10 = ADVANCED_BREP_SHAPE_REPRESENTATION ( '36992_37001', ( #25, #41 ), #76 ) ;
#11 = PERSON_AND_ORGANIZATION ( #148, #12 ) ;
#12 = ORGANIZATION ( 'UNSPECIFIED', 'UNSPECIFIED', '' ) ;
#13 = CC_DESIGN_PERSON_AND_ORGANIZATION_ASSIGNMENT ( #151, #128, ( #32 ) ) ;
#14 = CYLINDRICAL_SURFACE ( 'NONE', #87, 12.50000000000000000 ) ;
#15 = PRODUCT_RELATED_PRODUCT_CATEGORY ( 'detail', '', ( #61 ) ) ;
#16 = EDGE_CURVE ( 'NONE', #86, #23, #101, .T. ) ;
#17 = DATE_AND_TIME ( #53, #90 ) ;
#18 = FACE_OUTER_BOUND ( 'NONE', #106, .T. ) ;
#19 = COORDINATED_UNIVERSAL_TIME_OFFSET ( 5, 0, .BEHIND. ) ;
#20 = FACE_OUTER_BOUND ( 'NONE', #168, .T. ) ;
#21 = CALENDAR_DATE ( 2017, 6, 9 ) ;
#22 = PRODUCT_DEFINITION ( 'UNKNOWN', '', #32, #55 ) ;
#23 = VERTEX_POINT ( 'NONE', #153 ) ;
#24 = DATE_AND_TIME ( #21, #110 ) ;
#25 = MANIFOLD_SOLID_BREP ( 'Boss-Extrude1', #4 ) ;
#26 = SECURITY_CLASSIFICATION_LEVEL ( 'unclassified' ) ;
#27 = COORDINATED_UNIVERSAL_TIME_OFFSET ( 5, 0, .BEHIND. ) ;
#28 = AXIS2_PLACEMENT_3D ( 'NONE', #73, #71, #164 ) ;
#29 = ORIENTED_EDGE ( 'NONE', *, *, #150, .F. ) ;
#30 = CARTESIAN_POINT ( 'NONE',  ( 0.0000000000000000000, 0.0000000000000000000, 1.000000000000000000 ) ) ;
#31 = ORIENTED_EDGE ( 'NONE', *, *, #116, .T. ) ;
#32 = PRODUCT_DEFINITION_FORMATION_WITH_SPECIFIED_SOURCE ( 'ANY', '', #61, .NOT_KNOWN. ) ;
#33 = CARTESIAN_POINT ( 'NONE',  ( 0.0000000000000000000, 0.0000000000000000000, 0.0000000000000000000 ) ) ;
#34 = APPLICATION_CONTEXT ( 'configuration controlled 3d designs of mechanical parts and assemblies' ) ;
#35 = AXIS2_PLACEMENT_3D ( 'NONE', #30, #75, #131 ) ;
#36 = APPLICATION_PROTOCOL_DEFINITION ( 'international standard', 'config_control_design', 1994, #143 ) ;
#37 = DIRECTION ( 'NONE',  ( -0.0000000000000000000, -0.0000000000000000000, -1.000000000000000000 ) ) ;
#38 = PERSON_AND_ORGANIZATION ( #148, #12 ) ;
#39 = DATE_AND_TIME ( #47, #139 ) ;
#40 = CARTESIAN_POINT ( 'NONE',  ( -12.50000000000000000, 0.0000000000000000000, -1.000000000000000000 ) ) ;
#41 = AXIS2_PLACEMENT_3D ( 'NONE', #33, #48, #170 ) ;
#42 = DIRECTION ( 'NONE',  ( 1.000000000000000000, 0.0000000000000000000, -0.0000000000000000000 ) ) ;
#43 = CC_DESIGN_PERSON_AND_ORGANIZATION_ASSIGNMENT ( #69, #173, ( #32 ) ) ;
#44 = AXIS2_PLACEMENT_3D ( 'NONE', #155, #74, #1 ) ;
#45 = DATE_AND_TIME ( #175, #83 ) ;
#46 = ORIENTED_EDGE ( 'NONE', *, *, #8, .F. ) ;
#47 = CALENDAR_DATE ( 2017, 6, 9 ) ;
#48 = DIRECTION ( 'NONE',  ( 0.0000000000000000000, 0.0000000000000000000, 1.000000000000000000 ) ) ;
#49 = CARTESIAN_POINT ( 'NONE',  ( 0.0000000000000000000, 0.0000000000000000000, 1.000000000000000000 ) ) ;
#50 = APPROVAL_STATUS ( 'not_yet_approved' ) ;
#51 = APPROVAL ( #50, 'UNSPECIFIED' ) ;
#52 = VERTEX_POINT ( 'NONE', #40 ) ;
#53 = CALENDAR_DATE ( 2017, 6, 9 ) ;
#54 = EDGE_CURVE ( 'NONE', #23, #86, #62, .T. ) ;
#55 = DESIGN_CONTEXT ( 'detailed design', #143, 'design' ) ;
#56 = ORIENTED_EDGE ( 'NONE', *, *, #54, .T. ) ;
#57 = LINE ( 'NONE', #115, #60 ) ;
#58 = DIRECTION ( 'NONE',  ( -0.0000000000000000000, -0.0000000000000000000, -1.000000000000000000 ) ) ;
#59 = CC_DESIGN_SECURITY_CLASSIFICATION ( #5, ( #32 ) ) ;
#60 = VECTOR ( 'NONE', #58, 1000.000000000000000 ) ;
#61 = PRODUCT ( '36992_37001', '36992_37001', '', ( #96 ) ) ;
#62 = CIRCLE ( 'NONE', #44, 12.50000000000000000 ) ;
#63 = DIRECTION ( 'NONE',  ( 0.0000000000000000000, 0.0000000000000000000, 1.000000000000000000 ) ) ;
#64 = APPROVAL ( #144, 'UNSPECIFIED' ) ;
#65 =( NAMED_UNIT ( * ) PLANE_ANGLE_UNIT ( ) SI_UNIT ( $, .RADIAN. ) );
#66 = APPROVAL_PERSON_ORGANIZATION ( #133, #51, #159 ) ;
#67 = ORIENTED_EDGE ( 'NONE', *, *, #54, .F. ) ;
#68 = ORIENTED_EDGE ( 'NONE', *, *, #130, .T. ) ;
#69 = PERSON_AND_ORGANIZATION ( #148, #12 ) ;
#70 = CARTESIAN_POINT ( 'NONE',  ( 12.50000000000000000, 1.530808498934191500E-015, -1.000000000000000000 ) ) ;
#71 = DIRECTION ( 'NONE',  ( 0.0000000000000000000, 0.0000000000000000000, 1.000000000000000000 ) ) ;
#72 = ORIENTED_EDGE ( 'NONE', *, *, #16, .T. ) ;
#73 = CARTESIAN_POINT ( 'NONE',  ( 0.0000000000000000000, 0.0000000000000000000, -1.000000000000000000 ) ) ;
#74 = DIRECTION ( 'NONE',  ( 0.0000000000000000000, 0.0000000000000000000, 1.000000000000000000 ) ) ;
#75 = DIRECTION ( 'NONE',  ( 0.0000000000000000000, 0.0000000000000000000, 1.000000000000000000 ) ) ;
#76 =( GEOMETRIC_REPRESENTATION_CONTEXT ( 3 ) GLOBAL_UNCERTAINTY_ASSIGNED_CONTEXT ( ( #91 ) ) GLOBAL_UNIT_ASSIGNED_CONTEXT ( ( #135, #65, #121 ) ) REPRESENTATION_CONTEXT ( 'NONE', 'WORKASPACE' ) );
#77 = ORIENTED_EDGE ( 'NONE', *, *, #150, .T. ) ;
#78 = DIRECTION ( 'NONE',  ( 1.000000000000000000, 0.0000000000000000000, 0.0000000000000000000 ) ) ;
#79 = DIRECTION ( 'NONE',  ( -1.000000000000000000, 0.0000000000000000000, 0.0000000000000000000 ) ) ;
#80 = PERSON_AND_ORGANIZATION ( #148, #12 ) ;
#81 = CARTESIAN_POINT ( 'NONE',  ( 12.50000000000000000, 1.530808498934191500E-015, 1.000000000000000000 ) ) ;
#82 = CC_DESIGN_APPROVAL ( #64, ( #22 ) ) ;
#83 = LOCAL_TIME ( 11, 56, 16.00000000000000000, #88 ) ;
#84 = PERSON_AND_ORGANIZATION_ROLE ( 'classification_officer' ) ;
#85 = APPROVAL_ROLE ( '' ) ;
#86 = VERTEX_POINT ( 'NONE', #104 ) ;
#87 = AXIS2_PLACEMENT_3D ( 'NONE', #95, #37, #169 ) ;
#88 = COORDINATED_UNIVERSAL_TIME_OFFSET ( 5, 0, .BEHIND. ) ;
#89 = APPROVAL ( #100, 'UNSPECIFIED' ) ;
#90 = LOCAL_TIME ( 11, 56, 16.00000000000000000, #27 ) ;
#91 = UNCERTAINTY_MEASURE_WITH_UNIT (LENGTH_MEASURE( 1.000000000000000100E-005 ), #135, 'distance_accuracy_value', 'NONE');
#92 = APPROVAL_DATE_TIME ( #24, #64 ) ;
#93 = CC_DESIGN_PERSON_AND_ORGANIZATION_ASSIGNMENT ( #11, #84, ( #5 ) ) ;
#94 = FACE_OUTER_BOUND ( 'NONE', #103, .T. ) ;
#95 = CARTESIAN_POINT ( 'NONE',  ( 0.0000000000000000000, 0.0000000000000000000, 1.000000000000000000 ) ) ;
#96 = MECHANICAL_CONTEXT ( 'NONE', #34, 'mechanical' ) ;
#97 = DIRECTION ( 'NONE',  ( 1.000000000000000000, 0.0000000000000000000, -0.0000000000000000000 ) ) ;
#98 = EDGE_LOOP ( 'NONE', ( #72, #56 ) ) ;
#99 = CC_DESIGN_APPROVAL ( #89, ( #5 ) ) ;
#100 = APPROVAL_STATUS ( 'not_yet_approved' ) ;
#101 = CIRCLE ( 'NONE', #35, 12.50000000000000000 ) ;
#102 = CC_DESIGN_PERSON_AND_ORGANIZATION_ASSIGNMENT ( #80, #136, ( #61 ) ) ;
#103 = EDGE_LOOP ( 'NONE', ( #67, #77, #68, #140 ) ) ;
#104 = CARTESIAN_POINT ( 'NONE',  ( -12.50000000000000000, 0.0000000000000000000, 1.000000000000000000 ) ) ;
#105 = PLANE ( 'NONE',  #112 ) ;
#106 = EDGE_LOOP ( 'NONE', ( #29, #167, #31, #111 ) ) ;
#107 = CARTESIAN_POINT ( 'NONE',  ( 0.0000000000000000000, 0.0000000000000000000, 1.000000000000000000 ) ) ;
#108 = ADVANCED_FACE ( 'NONE', ( #20 ), #105, .F. ) ;
#109 = PERSON_AND_ORGANIZATION_ROLE ( 'creator' ) ;
#110 = LOCAL_TIME ( 11, 56, 16.00000000000000000, #154 ) ;
#111 = ORIENTED_EDGE ( 'NONE', *, *, #8, .T. ) ;
#112 = AXIS2_PLACEMENT_3D ( 'NONE', #166, #141, #42 ) ;
#113 = SHAPE_DEFINITION_REPRESENTATION ( #156, #10 ) ;
#114 = CC_DESIGN_PERSON_AND_ORGANIZATION_ASSIGNMENT ( #160, #109, ( #22 ) ) ;
#115 = CARTESIAN_POINT ( 'NONE',  ( -12.50000000000000000, 0.0000000000000000000, 1.000000000000000000 ) ) ;
#116 = EDGE_CURVE ( 'NONE', #86, #52, #57, .T. ) ;
#117 = CALENDAR_DATE ( 2017, 6, 9 ) ;
#118 = CC_DESIGN_DATE_AND_TIME_ASSIGNMENT ( #120, #125, ( #22 ) ) ;
#119 = VERTEX_POINT ( 'NONE', #70 ) ;
#120 = DATE_AND_TIME ( #117, #162 ) ;
#121 =( NAMED_UNIT ( * ) SI_UNIT ( $, .STERADIAN. ) SOLID_ANGLE_UNIT ( ) );
#122 = PLANE ( 'NONE',  #127 ) ;
#123 = CYLINDRICAL_SURFACE ( 'NONE', #145, 12.50000000000000000 ) ;
#124 = APPLICATION_PROTOCOL_DEFINITION ( 'international standard', 'config_control_design', 1994, #34 ) ;
#125 = DATE_TIME_ROLE ( 'creation_date' ) ;
#126 = APPROVAL_DATE_TIME ( #17, #51 ) ;
#127 = AXIS2_PLACEMENT_3D ( 'NONE', #49, #63, #97 ) ;
#128 = PERSON_AND_ORGANIZATION_ROLE ( 'design_supplier' ) ;
#129 = COORDINATED_UNIVERSAL_TIME_OFFSET ( 5, 0, .BEHIND. ) ;
#130 = EDGE_CURVE ( 'NONE', #119, #52, #161, .T. ) ;
#131 = DIRECTION ( 'NONE',  ( 1.000000000000000000, 0.0000000000000000000, 0.0000000000000000000 ) ) ;
#132 = LINE ( 'NONE', #81, #158 ) ;
#133 = PERSON_AND_ORGANIZATION ( #148, #12 ) ;
#134 = FACE_OUTER_BOUND ( 'NONE', #98, .T. ) ;
#135 =( LENGTH_UNIT ( ) NAMED_UNIT ( * ) SI_UNIT ( .MILLI., .METRE. ) );
#136 = PERSON_AND_ORGANIZATION_ROLE ( 'design_owner' ) ;
#137 = ADVANCED_FACE ( 'NONE', ( #18 ), #14, .T. ) ;
#138 = AXIS2_PLACEMENT_3D ( 'NONE', #157, #6, #78 ) ;
#139 = LOCAL_TIME ( 11, 56, 16.00000000000000000, #19 ) ;
#140 = ORIENTED_EDGE ( 'NONE', *, *, #116, .F. ) ;
#141 = DIRECTION ( 'NONE',  ( 0.0000000000000000000, 0.0000000000000000000, 1.000000000000000000 ) ) ;
#142 = CIRCLE ( 'NONE', #28, 12.50000000000000000 ) ;
#143 = APPLICATION_CONTEXT ( 'configuration controlled 3d designs of mechanical parts and assemblies' ) ;
#144 = APPROVAL_STATUS ( 'not_yet_approved' ) ;
#145 = AXIS2_PLACEMENT_3D ( 'NONE', #107, #171, #79 ) ;
#146 = APPROVAL_DATE_TIME ( #39, #89 ) ;
#147 = ADVANCED_FACE ( 'NONE', ( #134 ), #122, .T. ) ;
#148 = PERSON ( 'UNSPECIFIED', 'UNSPECIFIED', 'UNSPECIFIED', ('UNSPECIFIED'), ('UNSPECIFIED'), ('UNSPECIFIED') ) ;
#149 = DATE_TIME_ROLE ( 'classification_date' ) ;
#150 = EDGE_CURVE ( 'NONE', #23, #119, #132, .T. ) ;
#151 = PERSON_AND_ORGANIZATION ( #148, #12 ) ;
#152 = CC_DESIGN_DATE_AND_TIME_ASSIGNMENT ( #45, #149, ( #5 ) ) ;
#153 = CARTESIAN_POINT ( 'NONE',  ( 12.50000000000000000, 1.530808498934191500E-015, 1.000000000000000000 ) ) ;
#154 = COORDINATED_UNIVERSAL_TIME_OFFSET ( 5, 0, .BEHIND. ) ;
#155 = CARTESIAN_POINT ( 'NONE',  ( 0.0000000000000000000, 0.0000000000000000000, 1.000000000000000000 ) ) ;
#156 = PRODUCT_DEFINITION_SHAPE ( 'NONE', 'NONE',  #22 ) ;
#157 = CARTESIAN_POINT ( 'NONE',  ( 0.0000000000000000000, 0.0000000000000000000, -1.000000000000000000 ) ) ;
#158 = VECTOR ( 'NONE', #7, 1000.000000000000000 ) ;
#159 = APPROVAL_ROLE ( '' ) ;
#160 = PERSON_AND_ORGANIZATION ( #148, #12 ) ;
#161 = CIRCLE ( 'NONE', #138, 12.50000000000000000 ) ;
#162 = LOCAL_TIME ( 11, 56, 16.00000000000000000, #129 ) ;
#163 = ORIENTED_EDGE ( 'NONE', *, *, #130, .F. ) ;
#164 = DIRECTION ( 'NONE',  ( 1.000000000000000000, 0.0000000000000000000, 0.0000000000000000000 ) ) ;
#165 = CC_DESIGN_APPROVAL ( #51, ( #32 ) ) ;
#166 = CARTESIAN_POINT ( 'NONE',  ( 0.0000000000000000000, 0.0000000000000000000, -1.000000000000000000 ) ) ;
#167 = ORIENTED_EDGE ( 'NONE', *, *, #16, .F. ) ;
#168 = EDGE_LOOP ( 'NONE', ( #46, #163 ) ) ;
#169 = DIRECTION ( 'NONE',  ( -1.000000000000000000, 0.0000000000000000000, 0.0000000000000000000 ) ) ;
#170 = DIRECTION ( 'NONE',  ( 1.000000000000000000, 0.0000000000000000000, 0.0000000000000000000 ) ) ;
#171 = DIRECTION ( 'NONE',  ( -0.0000000000000000000, -0.0000000000000000000, -1.000000000000000000 ) ) ;
#172 = PERSON_AND_ORGANIZATION ( #148, #12 ) ;
#173 = PERSON_AND_ORGANIZATION_ROLE ( 'creator' ) ;
#174 = ADVANCED_FACE ( 'NONE', ( #94 ), #123, .T. ) ;
#175 = CALENDAR_DATE ( 2017, 6, 9 ) ;
ENDSEC;
END-ISO-10303-21;
