ISO-10303-21;
HEADER;
FILE_DESCRIPTION (( 'STEP AP203' ),
    '1' );
FILE_NAME ('Web Model 68735_62644.step',
    '2017-03-06T18:39:01',
    ( '' ),
    ( '' ),
    'SwSTEP 2.0',
    'SolidWorks 2016',
    '' );
FILE_SCHEMA (( 'CONFIG_CONTROL_DESIGN' ));
ENDSEC;

DATA;
#1 = DIRECTION ( 'NONE',  ( 0.0000000000000000000, 0.0000000000000000000, -1.000000000000000000 ) ) ;
#2 = PRODUCT_DEFINITION_FORMATION_WITH_SPECIFIED_SOURCE ( 'ANY', '', #9, .NOT_KNOWN. ) ;
#3 = FACE_OUTER_BOUND ( 'NONE', #70, .T. ) ;
#4 = FACE_OUTER_BOUND ( 'NONE', #126, .T. ) ;
#5 = DIRECTION ( 'NONE',  ( 1.000000000000000000, 0.0000000000000000000, 0.0000000000000000000 ) ) ;
#6 =( LENGTH_UNIT ( ) NAMED_UNIT ( * ) SI_UNIT ( .MILLI., .METRE. ) );
#7 = CARTESIAN_POINT ( 'NONE',  ( 0.0000000000000000000, 0.0000000000000000000, 6.250000000000000000 ) ) ;
#8 = CALENDAR_DATE ( 2017, 6, 3 ) ;
#9 = PRODUCT ( 'Web Model 68735_62644', 'Web Model 68735_62644', '', ( #56 ) ) ;
#10 = CC_DESIGN_PERSON_AND_ORGANIZATION_ASSIGNMENT ( #90, #54, ( #60 ) ) ;
#11 = PERSON_AND_ORGANIZATION_ROLE ( 'creator' ) ;
#12 = LINE ( 'NONE', #47, #165 ) ;
#13 = COORDINATED_UNIVERSAL_TIME_OFFSET ( 5, 0, .BEHIND. ) ;
#14 = FACE_OUTER_BOUND ( 'NONE', #115, .T. ) ;
#15 = PRODUCT_DEFINITION_SHAPE ( 'NONE', 'NONE',  #123 ) ;
#16 = CALENDAR_DATE ( 2017, 6, 3 ) ;
#17 = DATE_AND_TIME ( #29, #162 ) ;
#18 = CC_DESIGN_PERSON_AND_ORGANIZATION_ASSIGNMENT ( #169, #71, ( #2 ) ) ;
#19 = ORIENTED_EDGE ( 'NONE', *, *, #21, .F. ) ;
#20 = DIRECTION ( 'NONE',  ( 0.0000000000000000000, 0.0000000000000000000, -1.000000000000000000 ) ) ;
#21 = EDGE_CURVE ( 'NONE', #170, #45, #159, .T. ) ;
#22 = ADVANCED_BREP_SHAPE_REPRESENTATION ( 'Web Model 68735_62644', ( #158, #105 ), #141 ) ;
#23 = CYLINDRICAL_SURFACE ( 'NONE', #33, 6.250000000000000000 ) ;
#24 = APPROVAL_STATUS ( 'not_yet_approved' ) ;
#25 = ADVANCED_FACE ( 'NONE', ( #157 ), #118, .T. ) ;
#26 = EDGE_CURVE ( 'NONE', #153, #45, #135, .T. ) ;
#27 = DIRECTION ( 'NONE',  ( 1.000000000000000000, 0.0000000000000000000, 0.0000000000000000000 ) ) ;
#28 = CC_DESIGN_PERSON_AND_ORGANIZATION_ASSIGNMENT ( #51, #161, ( #2 ) ) ;
#29 = CALENDAR_DATE ( 2017, 6, 3 ) ;
#30 = COORDINATED_UNIVERSAL_TIME_OFFSET ( 5, 0, .BEHIND. ) ;
#31 = DIRECTION ( 'NONE',  ( -1.000000000000000000, -0.0000000000000000000, -0.0000000000000000000 ) ) ;
#32 = CARTESIAN_POINT ( 'NONE',  ( 0.0000000000000000000, 0.0000000000000000000, 0.0000000000000000000 ) ) ;
#33 = AXIS2_PLACEMENT_3D ( 'NONE', #124, #127, #111 ) ;
#34 = CIRCLE ( 'NONE', #102, 6.250000000000000000 ) ;
#35 = CARTESIAN_POINT ( 'NONE',  ( 0.0000000000000000000, 0.0000000000000000000, 0.0000000000000000000 ) ) ;
#36 = DESIGN_CONTEXT ( 'detailed design', #43, 'design' ) ;
#37 = CARTESIAN_POINT ( 'NONE',  ( 2.000000000000000000, 0.0000000000000000000, 0.0000000000000000000 ) ) ;
#38 = COORDINATED_UNIVERSAL_TIME_OFFSET ( 5, 0, .BEHIND. ) ;
#39 = ORIENTED_EDGE ( 'NONE', *, *, #80, .F. ) ;
#40 = AXIS2_PLACEMENT_3D ( 'NONE', #73, #137, #20 ) ;
#41 = APPROVAL_STATUS ( 'not_yet_approved' ) ;
#42 = APPROVAL_DATE_TIME ( #101, #52 ) ;
#43 = APPLICATION_CONTEXT ( 'configuration controlled 3d designs of mechanical parts and assemblies' ) ;
#44 = ORIENTED_EDGE ( 'NONE', *, *, #86, .T. ) ;
#45 = VERTEX_POINT ( 'NONE', #116 ) ;
#46 = COORDINATED_UNIVERSAL_TIME_OFFSET ( 5, 0, .BEHIND. ) ;
#47 = CARTESIAN_POINT ( 'NONE',  ( 2.000000000000000000, 0.0000000000000000000, 6.250000000000000000 ) ) ;
#48 = PLANE ( 'NONE',  #77 ) ;
#49 = APPLICATION_CONTEXT ( 'configuration controlled 3d designs of mechanical parts and assemblies' ) ;
#50 = ADVANCED_FACE ( 'NONE', ( #14 ), #23, .T. ) ;
#51 = PERSON_AND_ORGANIZATION ( #131, #129 ) ;
#52 = APPROVAL ( #41, 'UNSPECIFIED' ) ;
#53 = ORIENTED_EDGE ( 'NONE', *, *, #166, .T. ) ;
#54 = PERSON_AND_ORGANIZATION_ROLE ( 'classification_officer' ) ;
#55 = CALENDAR_DATE ( 2017, 6, 3 ) ;
#56 = MECHANICAL_CONTEXT ( 'NONE', #49, 'mechanical' ) ;
#57 = PERSON_AND_ORGANIZATION ( #131, #129 ) ;
#58 =( NAMED_UNIT ( * ) SI_UNIT ( $, .STERADIAN. ) SOLID_ANGLE_UNIT ( ) );
#59 = DIRECTION ( 'NONE',  ( 0.0000000000000000000, 0.0000000000000000000, 1.000000000000000000 ) ) ;
#60 = SECURITY_CLASSIFICATION ( '', '', #149 ) ;
#61 = DIRECTION ( 'NONE',  ( -1.000000000000000000, -0.0000000000000000000, -0.0000000000000000000 ) ) ;
#62 = ORIENTED_EDGE ( 'NONE', *, *, #26, .F. ) ;
#63 = EDGE_LOOP ( 'NONE', ( #39, #91, #132, #125 ) ) ;
#64 = DIRECTION ( 'NONE',  ( 0.0000000000000000000, 0.0000000000000000000, -1.000000000000000000 ) ) ;
#65 = DIRECTION ( 'NONE',  ( 0.0000000000000000000, 0.0000000000000000000, -1.000000000000000000 ) ) ;
#66 = AXIS2_PLACEMENT_3D ( 'NONE', #109, #61, #59 ) ;
#67 = LOCAL_TIME ( 13, 39, 1.000000000000000000, #38 ) ;
#68 = CC_DESIGN_DATE_AND_TIME_ASSIGNMENT ( #104, #134, ( #60 ) ) ;
#69 = DATE_AND_TIME ( #8, #97 ) ;
#70 = EDGE_LOOP ( 'NONE', ( #44, #76 ) ) ;
#71 = PERSON_AND_ORGANIZATION_ROLE ( 'design_supplier' ) ;
#72 = COORDINATED_UNIVERSAL_TIME_OFFSET ( 5, 0, .BEHIND. ) ;
#73 = CARTESIAN_POINT ( 'NONE',  ( 0.0000000000000000000, 0.0000000000000000000, 0.0000000000000000000 ) ) ;
#74 = DIRECTION ( 'NONE',  ( 1.000000000000000000, 0.0000000000000000000, 0.0000000000000000000 ) ) ;
#75 = DIRECTION ( 'NONE',  ( -1.000000000000000000, -0.0000000000000000000, -0.0000000000000000000 ) ) ;
#76 = ORIENTED_EDGE ( 'NONE', *, *, #80, .T. ) ;
#77 = AXIS2_PLACEMENT_3D ( 'NONE', #35, #5, #1 ) ;
#78 = APPROVAL_DATE_TIME ( #17, #114 ) ;
#79 = PRODUCT_RELATED_PRODUCT_CATEGORY ( 'detail', '', ( #9 ) ) ;
#80 = EDGE_CURVE ( 'NONE', #153, #173, #107, .T. ) ;
#81 = CC_DESIGN_APPROVAL ( #114, ( #123 ) ) ;
#82 = ORIENTED_EDGE ( 'NONE', *, *, #86, .F. ) ;
#83 = APPROVAL_ROLE ( '' ) ;
#84 =( NAMED_UNIT ( * ) PLANE_ANGLE_UNIT ( ) SI_UNIT ( $, .RADIAN. ) );
#85 = APPLICATION_PROTOCOL_DEFINITION ( 'international standard', 'config_control_design', 1994, #49 ) ;
#86 = EDGE_CURVE ( 'NONE', #173, #153, #34, .T. ) ;
#87 = PERSON_AND_ORGANIZATION ( #131, #129 ) ;
#88 = CC_DESIGN_PERSON_AND_ORGANIZATION_ASSIGNMENT ( #148, #136, ( #9 ) ) ;
#89 = CARTESIAN_POINT ( 'NONE',  ( 0.0000000000000000000, 0.0000000000000000000, 0.0000000000000000000 ) ) ;
#90 = PERSON_AND_ORGANIZATION ( #131, #129 ) ;
#91 = ORIENTED_EDGE ( 'NONE', *, *, #26, .T. ) ;
#92 = ORIENTED_EDGE ( 'NONE', *, *, #103, .F. ) ;
#93 = DATE_TIME_ROLE ( 'creation_date' ) ;
#94 = SHAPE_DEFINITION_REPRESENTATION ( #15, #22 ) ;
#95 = CARTESIAN_POINT ( 'NONE',  ( 2.000000000000000000, 7.654042494670957600E-016, -6.250000000000000000 ) ) ;
#96 = DATE_AND_TIME ( #55, #112 ) ;
#97 = LOCAL_TIME ( 13, 39, 1.000000000000000000, #13 ) ;
#98 = CARTESIAN_POINT ( 'NONE',  ( 2.000000000000000000, 0.0000000000000000000, 0.0000000000000000000 ) ) ;
#99 = CARTESIAN_POINT ( 'NONE',  ( 2.000000000000000000, 0.0000000000000000000, 0.0000000000000000000 ) ) ;
#100 = CIRCLE ( 'NONE', #40, 6.250000000000000000 ) ;
#101 = DATE_AND_TIME ( #16, #175 ) ;
#102 = AXIS2_PLACEMENT_3D ( 'NONE', #98, #74, #139 ) ;
#103 = EDGE_CURVE ( 'NONE', #45, #170, #100, .T. ) ;
#104 = DATE_AND_TIME ( #133, #67 ) ;
#105 = AXIS2_PLACEMENT_3D ( 'NONE', #32, #140, #151 ) ;
#106 = APPROVAL_ROLE ( '' ) ;
#107 = CIRCLE ( 'NONE', #113, 6.250000000000000000 ) ;
#108 = VECTOR ( 'NONE', #31, 1000.000000000000000 ) ;
#109 = CARTESIAN_POINT ( 'NONE',  ( 2.000000000000000000, 0.0000000000000000000, 0.0000000000000000000 ) ) ;
#110 = CC_DESIGN_SECURITY_CLASSIFICATION ( #60, ( #2 ) ) ;
#111 = DIRECTION ( 'NONE',  ( 0.0000000000000000000, 0.0000000000000000000, 1.000000000000000000 ) ) ;
#112 = LOCAL_TIME ( 13, 39, 1.000000000000000000, #30 ) ;
#113 = AXIS2_PLACEMENT_3D ( 'NONE', #37, #27, #64 ) ;
#114 = APPROVAL ( #24, 'UNSPECIFIED' ) ;
#115 = EDGE_LOOP ( 'NONE', ( #62, #82, #53, #143 ) ) ;
#116 = CARTESIAN_POINT ( 'NONE',  ( 0.0000000000000000000, 7.654042494670957600E-016, -6.250000000000000000 ) ) ;
#117 = ADVANCED_FACE ( 'NONE', ( #4 ), #48, .F. ) ;
#118 = CYLINDRICAL_SURFACE ( 'NONE', #66, 6.250000000000000000 ) ;
#119 = PERSON_AND_ORGANIZATION ( #131, #129 ) ;
#120 = APPROVAL_ROLE ( '' ) ;
#121 = APPLICATION_PROTOCOL_DEFINITION ( 'international standard', 'config_control_design', 1994, #43 ) ;
#122 = PERSON_AND_ORGANIZATION ( #131, #129 ) ;
#123 = PRODUCT_DEFINITION ( 'UNKNOWN', '', #2, #36 ) ;
#124 = CARTESIAN_POINT ( 'NONE',  ( 2.000000000000000000, 0.0000000000000000000, 0.0000000000000000000 ) ) ;
#125 = ORIENTED_EDGE ( 'NONE', *, *, #166, .F. ) ;
#126 = EDGE_LOOP ( 'NONE', ( #19, #92 ) ) ;
#127 = DIRECTION ( 'NONE',  ( -1.000000000000000000, -0.0000000000000000000, -0.0000000000000000000 ) ) ;
#128 = CARTESIAN_POINT ( 'NONE',  ( 2.000000000000000000, 0.0000000000000000000, 6.250000000000000000 ) ) ;
#129 = ORGANIZATION ( 'UNSPECIFIED', 'UNSPECIFIED', '' ) ;
#130 = DIRECTION ( 'NONE',  ( 0.0000000000000000000, 0.0000000000000000000, -1.000000000000000000 ) ) ;
#131 = PERSON ( 'UNSPECIFIED', 'UNSPECIFIED', 'UNSPECIFIED', ('UNSPECIFIED'), ('UNSPECIFIED'), ('UNSPECIFIED') ) ;
#132 = ORIENTED_EDGE ( 'NONE', *, *, #103, .T. ) ;
#133 = CALENDAR_DATE ( 2017, 6, 3 ) ;
#134 = DATE_TIME_ROLE ( 'classification_date' ) ;
#135 = LINE ( 'NONE', #95, #108 ) ;
#136 = PERSON_AND_ORGANIZATION_ROLE ( 'design_owner' ) ;
#137 = DIRECTION ( 'NONE',  ( 1.000000000000000000, 0.0000000000000000000, 0.0000000000000000000 ) ) ;
#138 = APPROVAL_PERSON_ORGANIZATION ( #57, #114, #106 ) ;
#139 = DIRECTION ( 'NONE',  ( 0.0000000000000000000, 0.0000000000000000000, -1.000000000000000000 ) ) ;
#140 = DIRECTION ( 'NONE',  ( 0.0000000000000000000, 0.0000000000000000000, 1.000000000000000000 ) ) ;
#141 =( GEOMETRIC_REPRESENTATION_CONTEXT ( 3 ) GLOBAL_UNCERTAINTY_ASSIGNED_CONTEXT ( ( #142 ) ) GLOBAL_UNIT_ASSIGNED_CONTEXT ( ( #6, #84, #58 ) ) REPRESENTATION_CONTEXT ( 'NONE', 'WORKASPACE' ) );
#142 = UNCERTAINTY_MEASURE_WITH_UNIT (LENGTH_MEASURE( 1.000000000000000100E-005 ), #6, 'distance_accuracy_value', 'NONE');
#143 = ORIENTED_EDGE ( 'NONE', *, *, #21, .T. ) ;
#144 = CC_DESIGN_PERSON_AND_ORGANIZATION_ASSIGNMENT ( #122, #11, ( #123 ) ) ;
#145 = CLOSED_SHELL ( 'NONE', ( #25, #50, #168, #117 ) ) ;
#146 = APPROVAL_PERSON_ORGANIZATION ( #119, #52, #120 ) ;
#147 = AXIS2_PLACEMENT_3D ( 'NONE', #99, #156, #65 ) ;
#148 = PERSON_AND_ORGANIZATION ( #131, #129 ) ;
#149 = SECURITY_CLASSIFICATION_LEVEL ( 'unclassified' ) ;
#150 = AXIS2_PLACEMENT_3D ( 'NONE', #89, #155, #130 ) ;
#151 = DIRECTION ( 'NONE',  ( 1.000000000000000000, 0.0000000000000000000, 0.0000000000000000000 ) ) ;
#152 = CARTESIAN_POINT ( 'NONE',  ( 2.000000000000000000, 7.654042494670957600E-016, -6.250000000000000000 ) ) ;
#153 = VERTEX_POINT ( 'NONE', #152 ) ;
#154 = APPROVAL ( #174, 'UNSPECIFIED' ) ;
#155 = DIRECTION ( 'NONE',  ( 1.000000000000000000, 0.0000000000000000000, 0.0000000000000000000 ) ) ;
#156 = DIRECTION ( 'NONE',  ( 1.000000000000000000, 0.0000000000000000000, 0.0000000000000000000 ) ) ;
#157 = FACE_OUTER_BOUND ( 'NONE', #63, .T. ) ;
#158 = MANIFOLD_SOLID_BREP ( 'Extrude1', #145 ) ;
#159 = CIRCLE ( 'NONE', #150, 6.250000000000000000 ) ;
#160 = CC_DESIGN_APPROVAL ( #154, ( #2 ) ) ;
#161 = PERSON_AND_ORGANIZATION_ROLE ( 'creator' ) ;
#162 = LOCAL_TIME ( 13, 39, 1.000000000000000000, #46 ) ;
#163 = APPROVAL_DATE_TIME ( #69, #154 ) ;
#164 = PLANE ( 'NONE',  #147 ) ;
#165 = VECTOR ( 'NONE', #75, 1000.000000000000000 ) ;
#166 = EDGE_CURVE ( 'NONE', #173, #170, #12, .T. ) ;
#167 = CC_DESIGN_DATE_AND_TIME_ASSIGNMENT ( #96, #93, ( #123 ) ) ;
#168 = ADVANCED_FACE ( 'NONE', ( #3 ), #164, .T. ) ;
#169 = PERSON_AND_ORGANIZATION ( #131, #129 ) ;
#170 = VERTEX_POINT ( 'NONE', #7 ) ;
#171 = CC_DESIGN_APPROVAL ( #52, ( #60 ) ) ;
#172 = APPROVAL_PERSON_ORGANIZATION ( #87, #154, #83 ) ;
#173 = VERTEX_POINT ( 'NONE', #128 ) ;
#174 = APPROVAL_STATUS ( 'not_yet_approved' ) ;
#175 = LOCAL_TIME ( 13, 39, 1.000000000000000000, #72 ) ;
ENDSEC;
END-ISO-10303-21;
