ISO-10303-21;
HEADER;
FILE_DESCRIPTION (( 'STEP AP203' ),
    '1' );
FILE_NAME ('Web Model 45853.STEP',
    '2017-01-31T15:18:40',
    ( '' ),
    ( '' ),
    'SwSTEP 2.0',
    'SolidWorks 2016',
    '' );
FILE_SCHEMA (( 'CONFIG_CONTROL_DESIGN' ));
ENDSEC;

DATA;
#1 = APPROVAL ( #6, 'UNSPECIFIED' ) ;
#2 = VERTEX_POINT ( 'NONE', #34 ) ;
#3 = PLANE ( 'NONE',  #91 ) ;
#4 = CARTESIAN_POINT ( 'NONE',  ( 0.0000000000000000000, 0.0000000000000000000, 0.0000000000000000000 ) ) ;
#5 = EDGE_LOOP ( 'NONE', ( #133, #12 ) ) ;
#6 = APPROVAL_STATUS ( 'not_yet_approved' ) ;
#7 = AXIS2_PLACEMENT_3D ( 'NONE', #55, #57, #102 ) ;
#8 = LOCAL_TIME ( 10, 18, 40.00000000000000000, #22 ) ;
#9 = COORDINATED_UNIVERSAL_TIME_OFFSET ( 5, 0, .BEHIND. ) ;
#10 = CARTESIAN_POINT ( 'NONE',  ( -12.50000000000000000, 0.0000000000000000000, 0.0000000000000000000 ) ) ;
#11 = CYLINDRICAL_SURFACE ( 'NONE', #51, 12.50000000000000000 ) ;
#12 = ORIENTED_EDGE ( 'NONE', *, *, #148, .F. ) ;
#13 = AXIS2_PLACEMENT_3D ( 'NONE', #53, #149, #70 ) ;
#14 = LOCAL_TIME ( 10, 18, 40.00000000000000000, #80 ) ;
#15 = ORIENTED_EDGE ( 'NONE', *, *, #64, .F. ) ;
#16 = FACE_OUTER_BOUND ( 'NONE', #153, .T. ) ;
#17 = CALENDAR_DATE ( 2017, 31, 1 ) ;
#18 = EDGE_LOOP ( 'NONE', ( #32, #38 ) ) ;
#19 = DIRECTION ( 'NONE',  ( 0.0000000000000000000, 0.0000000000000000000, 1.000000000000000000 ) ) ;
#20 = EDGE_CURVE ( 'NONE', #29, #61, #112, .T. ) ;
#21 =( NAMED_UNIT ( * ) PLANE_ANGLE_UNIT ( ) SI_UNIT ( $, .RADIAN. ) );
#22 = COORDINATED_UNIVERSAL_TIME_OFFSET ( 5, 0, .BEHIND. ) ;
#23 = DIRECTION ( 'NONE',  ( -1.000000000000000000, 0.0000000000000000000, 0.0000000000000000000 ) ) ;
#24 = PLANE ( 'NONE',  #13 ) ;
#25 = PERSON_AND_ORGANIZATION ( #150, #74 ) ;
#26 = ADVANCED_FACE ( 'NONE', ( #106 ), #11, .T. ) ;
#27 = CC_DESIGN_SECURITY_CLASSIFICATION ( #131, ( #137 ) ) ;
#28 = ORIENTED_EDGE ( 'NONE', *, *, #148, .T. ) ;
#29 = VERTEX_POINT ( 'NONE', #121 ) ;
#30 = DIRECTION ( 'NONE',  ( -0.0000000000000000000, -0.0000000000000000000, -1.000000000000000000 ) ) ;
#31 = PERSON_AND_ORGANIZATION_ROLE ( 'classification_officer' ) ;
#32 = ORIENTED_EDGE ( 'NONE', *, *, #81, .T. ) ;
#33 = AXIS2_PLACEMENT_3D ( 'NONE', #127, #166, #140 ) ;
#34 = CARTESIAN_POINT ( 'NONE',  ( 12.50000000000000000, 1.530808498934191500E-015, 0.0000000000000000000 ) ) ;
#35 = ADVANCED_FACE ( 'NONE', ( #16 ), #146, .T. ) ;
#36 = CARTESIAN_POINT ( 'NONE',  ( -12.50000000000000000, 0.0000000000000000000, 3.000000000000000000 ) ) ;
#37 = PRODUCT_DEFINITION ( 'UNKNOWN', '', #137, #109 ) ;
#38 = ORIENTED_EDGE ( 'NONE', *, *, #20, .T. ) ;
#39 = LOCAL_TIME ( 10, 18, 40.00000000000000000, #76 ) ;
#40 = ORIENTED_EDGE ( 'NONE', *, *, #124, .T. ) ;
#41 = AXIS2_PLACEMENT_3D ( 'NONE', #107, #50, #63 ) ;
#42 = DATE_AND_TIME ( #17, #8 ) ;
#43 = ORIENTED_EDGE ( 'NONE', *, *, #20, .F. ) ;
#44 = MECHANICAL_CONTEXT ( 'NONE', #98, 'mechanical' ) ;
#45 = APPLICATION_CONTEXT ( 'configuration controlled 3d designs of mechanical parts and assemblies' ) ;
#46 =( GEOMETRIC_REPRESENTATION_CONTEXT ( 3 ) GLOBAL_UNCERTAINTY_ASSIGNED_CONTEXT ( ( #82 ) ) GLOBAL_UNIT_ASSIGNED_CONTEXT ( ( #129, #21, #65 ) ) REPRESENTATION_CONTEXT ( 'NONE', 'WORKASPACE' ) );
#47 = PERSON_AND_ORGANIZATION ( #150, #74 ) ;
#48 = CARTESIAN_POINT ( 'NONE',  ( 0.0000000000000000000, 0.0000000000000000000, 3.000000000000000000 ) ) ;
#49 = PRODUCT_RELATED_PRODUCT_CATEGORY ( 'detail', '', ( #138 ) ) ;
#50 = DIRECTION ( 'NONE',  ( 0.0000000000000000000, 0.0000000000000000000, 1.000000000000000000 ) ) ;
#51 = AXIS2_PLACEMENT_3D ( 'NONE', #101, #103, #23 ) ;
#52 = CALENDAR_DATE ( 2017, 31, 1 ) ;
#53 = CARTESIAN_POINT ( 'NONE',  ( 0.0000000000000000000, 0.0000000000000000000, 3.000000000000000000 ) ) ;
#54 = SHAPE_DEFINITION_REPRESENTATION ( #151, #75 ) ;
#55 = CARTESIAN_POINT ( 'NONE',  ( 0.0000000000000000000, 0.0000000000000000000, 0.0000000000000000000 ) ) ;
#56 = CC_DESIGN_DATE_AND_TIME_ASSIGNMENT ( #169, #58, ( #37 ) ) ;
#57 = DIRECTION ( 'NONE',  ( 0.0000000000000000000, 0.0000000000000000000, 1.000000000000000000 ) ) ;
#58 = DATE_TIME_ROLE ( 'creation_date' ) ;
#59 = APPROVAL_STATUS ( 'not_yet_approved' ) ;
#60 = PERSON_AND_ORGANIZATION_ROLE ( 'design_supplier' ) ;
#61 = VERTEX_POINT ( 'NONE', #36 ) ;
#62 = EDGE_LOOP ( 'NONE', ( #43, #40, #28, #15 ) ) ;
#63 = DIRECTION ( 'NONE',  ( 1.000000000000000000, 0.0000000000000000000, 0.0000000000000000000 ) ) ;
#64 = EDGE_CURVE ( 'NONE', #61, #77, #125, .T. ) ;
#65 =( NAMED_UNIT ( * ) SI_UNIT ( $, .STERADIAN. ) SOLID_ANGLE_UNIT ( ) );
#66 = COORDINATED_UNIVERSAL_TIME_OFFSET ( 5, 0, .BEHIND. ) ;
#67 = ADVANCED_FACE ( 'NONE', ( #147 ), #24, .T. ) ;
#68 = ORIENTED_EDGE ( 'NONE', *, *, #64, .T. ) ;
#69 = FACE_OUTER_BOUND ( 'NONE', #5, .T. ) ;
#70 = DIRECTION ( 'NONE',  ( 1.000000000000000000, 0.0000000000000000000, -0.0000000000000000000 ) ) ;
#71 = CC_DESIGN_APPROVAL ( #123, ( #137 ) ) ;
#72 = LINE ( 'NONE', #110, #99 ) ;
#73 = DIRECTION ( 'NONE',  ( -0.0000000000000000000, -0.0000000000000000000, -1.000000000000000000 ) ) ;
#74 = ORGANIZATION ( 'UNSPECIFIED', 'UNSPECIFIED', '' ) ;
#75 = ADVANCED_BREP_SHAPE_REPRESENTATION ( 'Web Model 45853', ( #159, #7 ), #46 ) ;
#76 = COORDINATED_UNIVERSAL_TIME_OFFSET ( 5, 0, .BEHIND. ) ;
#77 = VERTEX_POINT ( 'NONE', #10 ) ;
#78 = LOCAL_TIME ( 10, 18, 40.00000000000000000, #66 ) ;
#79 = DIRECTION ( 'NONE',  ( 1.000000000000000000, 0.0000000000000000000, 0.0000000000000000000 ) ) ;
#80 = COORDINATED_UNIVERSAL_TIME_OFFSET ( 5, 0, .BEHIND. ) ;
#81 = EDGE_CURVE ( 'NONE', #61, #29, #175, .T. ) ;
#82 = UNCERTAINTY_MEASURE_WITH_UNIT (LENGTH_MEASURE( 1.000000000000000100E-005 ), #129, 'distance_accuracy_value', 'NONE');
#83 = PERSON_AND_ORGANIZATION_ROLE ( 'design_owner' ) ;
#84 = PERSON_AND_ORGANIZATION ( #150, #74 ) ;
#85 = CC_DESIGN_PERSON_AND_ORGANIZATION_ASSIGNMENT ( #128, #119, ( #137 ) ) ;
#86 = LOCAL_TIME ( 10, 18, 40.00000000000000000, #9 ) ;
#87 = AXIS2_PLACEMENT_3D ( 'NONE', #95, #113, #141 ) ;
#88 = PERSON_AND_ORGANIZATION ( #150, #74 ) ;
#89 = CARTESIAN_POINT ( 'NONE',  ( -12.50000000000000000, 0.0000000000000000000, 3.000000000000000000 ) ) ;
#90 = APPROVAL_PERSON_ORGANIZATION ( #25, #123, #145 ) ;
#91 = AXIS2_PLACEMENT_3D ( 'NONE', #4, #19, #115 ) ;
#92 = APPROVAL_DATE_TIME ( #167, #1 ) ;
#93 = CIRCLE ( 'NONE', #87, 12.50000000000000000 ) ;
#94 = ORIENTED_EDGE ( 'NONE', *, *, #114, .T. ) ;
#95 = CARTESIAN_POINT ( 'NONE',  ( 0.0000000000000000000, 0.0000000000000000000, 0.0000000000000000000 ) ) ;
#96 = APPLICATION_PROTOCOL_DEFINITION ( 'international standard', 'config_control_design', 1994, #45 ) ;
#97 = APPROVAL_ROLE ( '' ) ;
#98 = APPLICATION_CONTEXT ( 'configuration controlled 3d designs of mechanical parts and assemblies' ) ;
#99 = VECTOR ( 'NONE', #30, 1000.000000000000000 ) ;
#100 = CC_DESIGN_PERSON_AND_ORGANIZATION_ASSIGNMENT ( #47, #83, ( #138 ) ) ;
#101 = CARTESIAN_POINT ( 'NONE',  ( 0.0000000000000000000, 0.0000000000000000000, 3.000000000000000000 ) ) ;
#102 = DIRECTION ( 'NONE',  ( 1.000000000000000000, 0.0000000000000000000, 0.0000000000000000000 ) ) ;
#103 = DIRECTION ( 'NONE',  ( -0.0000000000000000000, -0.0000000000000000000, -1.000000000000000000 ) ) ;
#104 = ADVANCED_FACE ( 'NONE', ( #69 ), #3, .F. ) ;
#105 = PERSON_AND_ORGANIZATION ( #150, #74 ) ;
#106 = FACE_OUTER_BOUND ( 'NONE', #62, .T. ) ;
#107 = CARTESIAN_POINT ( 'NONE',  ( 0.0000000000000000000, 0.0000000000000000000, 3.000000000000000000 ) ) ;
#108 = AXIS2_PLACEMENT_3D ( 'NONE', #165, #154, #79 ) ;
#109 = DESIGN_CONTEXT ( 'detailed design', #45, 'design' ) ;
#110 = CARTESIAN_POINT ( 'NONE',  ( 12.50000000000000000, 1.530808498934191500E-015, 3.000000000000000000 ) ) ;
#111 = CC_DESIGN_APPROVAL ( #135, ( #37 ) ) ;
#112 = CIRCLE ( 'NONE', #41, 12.50000000000000000 ) ;
#113 = DIRECTION ( 'NONE',  ( 0.0000000000000000000, 0.0000000000000000000, 1.000000000000000000 ) ) ;
#114 = EDGE_CURVE ( 'NONE', #77, #2, #139, .T. ) ;
#115 = DIRECTION ( 'NONE',  ( 1.000000000000000000, 0.0000000000000000000, -0.0000000000000000000 ) ) ;
#116 = PERSON_AND_ORGANIZATION_ROLE ( 'creator' ) ;
#117 = APPROVAL_DATE_TIME ( #152, #135 ) ;
#118 = ORIENTED_EDGE ( 'NONE', *, *, #81, .F. ) ;
#119 = PERSON_AND_ORGANIZATION_ROLE ( 'creator' ) ;
#120 = PERSON_AND_ORGANIZATION ( #150, #74 ) ;
#121 = CARTESIAN_POINT ( 'NONE',  ( 12.50000000000000000, 1.530808498934191500E-015, 3.000000000000000000 ) ) ;
#122 = APPROVAL_PERSON_ORGANIZATION ( #84, #1, #171 ) ;
#123 = APPROVAL ( #59, 'UNSPECIFIED' ) ;
#124 = EDGE_CURVE ( 'NONE', #29, #2, #72, .T. ) ;
#125 = LINE ( 'NONE', #89, #157 ) ;
#126 = CC_DESIGN_APPROVAL ( #1, ( #131 ) ) ;
#127 = CARTESIAN_POINT ( 'NONE',  ( 0.0000000000000000000, 0.0000000000000000000, 3.000000000000000000 ) ) ;
#128 = PERSON_AND_ORGANIZATION ( #150, #74 ) ;
#129 =( LENGTH_UNIT ( ) NAMED_UNIT ( * ) SI_UNIT ( .MILLI., .METRE. ) );
#130 = CALENDAR_DATE ( 2017, 31, 1 ) ;
#131 = SECURITY_CLASSIFICATION ( '', '', #158 ) ;
#132 = APPROVAL_STATUS ( 'not_yet_approved' ) ;
#133 = ORIENTED_EDGE ( 'NONE', *, *, #114, .F. ) ;
#134 = CALENDAR_DATE ( 2017, 31, 1 ) ;
#135 = APPROVAL ( #132, 'UNSPECIFIED' ) ;
#136 = CLOSED_SHELL ( 'NONE', ( #26, #35, #67, #104 ) ) ;
#137 = PRODUCT_DEFINITION_FORMATION_WITH_SPECIFIED_SOURCE ( 'ANY', '', #138, .NOT_KNOWN. ) ;
#138 = PRODUCT ( 'Web Model 45853', 'Web Model 45853', '', ( #44 ) ) ;
#139 = CIRCLE ( 'NONE', #108, 12.50000000000000000 ) ;
#140 = DIRECTION ( 'NONE',  ( 1.000000000000000000, 0.0000000000000000000, 0.0000000000000000000 ) ) ;
#141 = DIRECTION ( 'NONE',  ( 1.000000000000000000, 0.0000000000000000000, 0.0000000000000000000 ) ) ;
#142 = APPLICATION_PROTOCOL_DEFINITION ( 'international standard', 'config_control_design', 1994, #98 ) ;
#143 = PERSON_AND_ORGANIZATION ( #150, #74 ) ;
#144 = ORIENTED_EDGE ( 'NONE', *, *, #124, .F. ) ;
#145 = APPROVAL_ROLE ( '' ) ;
#146 = CYLINDRICAL_SURFACE ( 'NONE', #173, 12.50000000000000000 ) ;
#147 = FACE_OUTER_BOUND ( 'NONE', #18, .T. ) ;
#148 = EDGE_CURVE ( 'NONE', #2, #77, #93, .T. ) ;
#149 = DIRECTION ( 'NONE',  ( 0.0000000000000000000, 0.0000000000000000000, 1.000000000000000000 ) ) ;
#150 = PERSON ( 'UNSPECIFIED', 'UNSPECIFIED', 'UNSPECIFIED', ('UNSPECIFIED'), ('UNSPECIFIED'), ('UNSPECIFIED') ) ;
#151 = PRODUCT_DEFINITION_SHAPE ( 'NONE', 'NONE',  #37 ) ;
#152 = DATE_AND_TIME ( #134, #39 ) ;
#153 = EDGE_LOOP ( 'NONE', ( #144, #118, #68, #94 ) ) ;
#154 = DIRECTION ( 'NONE',  ( 0.0000000000000000000, 0.0000000000000000000, 1.000000000000000000 ) ) ;
#155 = CC_DESIGN_PERSON_AND_ORGANIZATION_ASSIGNMENT ( #88, #31, ( #131 ) ) ;
#156 = CALENDAR_DATE ( 2017, 31, 1 ) ;
#157 = VECTOR ( 'NONE', #174, 1000.000000000000000 ) ;
#158 = SECURITY_CLASSIFICATION_LEVEL ( 'unclassified' ) ;
#159 = MANIFOLD_SOLID_BREP ( 'Extrude1', #136 ) ;
#160 = DATE_AND_TIME ( #52, #86 ) ;
#161 = CC_DESIGN_PERSON_AND_ORGANIZATION_ASSIGNMENT ( #105, #116, ( #37 ) ) ;
#162 = APPROVAL_DATE_TIME ( #42, #123 ) ;
#163 = APPROVAL_PERSON_ORGANIZATION ( #143, #135, #97 ) ;
#164 = CC_DESIGN_DATE_AND_TIME_ASSIGNMENT ( #160, #168, ( #131 ) ) ;
#165 = CARTESIAN_POINT ( 'NONE',  ( 0.0000000000000000000, 0.0000000000000000000, 0.0000000000000000000 ) ) ;
#166 = DIRECTION ( 'NONE',  ( 0.0000000000000000000, 0.0000000000000000000, 1.000000000000000000 ) ) ;
#167 = DATE_AND_TIME ( #156, #14 ) ;
#168 = DATE_TIME_ROLE ( 'classification_date' ) ;
#169 = DATE_AND_TIME ( #130, #78 ) ;
#170 = CC_DESIGN_PERSON_AND_ORGANIZATION_ASSIGNMENT ( #120, #60, ( #137 ) ) ;
#171 = APPROVAL_ROLE ( '' ) ;
#172 = DIRECTION ( 'NONE',  ( -1.000000000000000000, 0.0000000000000000000, 0.0000000000000000000 ) ) ;
#173 = AXIS2_PLACEMENT_3D ( 'NONE', #48, #73, #172 ) ;
#174 = DIRECTION ( 'NONE',  ( -0.0000000000000000000, -0.0000000000000000000, -1.000000000000000000 ) ) ;
#175 = CIRCLE ( 'NONE', #33, 12.50000000000000000 ) ;
ENDSEC;
END-ISO-10303-21;
